PrimaNota.ru - самый крупный в мире бесплатный архив песенных текстов, аккордов, табулатур и нот


Rush - Good News First - текст песни, бас-таба, видео

Регистрация Запомнить меня
Войти через:  Facebook Google Twitter Vk Yandex Mail.ru

Rush - Good News First - текст песни, бас-таба, видео

Печатать
Просмотров: 104
Авторы музыки: Geddy Lee, Alex Lifeson
Авторы текста: Neil Peart
-------------------------------------------------------------------------------
                         Good News First - Rush
-------------------------------------------------------------------------------

Tabbed by: TBone142
e-mail: tbone142@freemail.hu

Tuning: standard EADG

Intro:
G|---------------------------------------------------------------------------|
D|---------------------------------------------------------------------------|
A|3--3-3---------3----5--5-5--5--5-7-5-7--3--3----------3-5-6--6-6-5--5-6-5-6|
E|-------3--3--3---3---------------------------3--3-3-3----------------------|

G|---------------------------------------------------------------------------|
D|---------------------------------------------------------------------------|
A|3--3-----------3----5--5-5--5--5-7-5-7-3--3-----------3--------------------|
E|-----3--3-3-3----3---------------------------3--3-3-3---3-0--0-0--0-0--0-8\|

G|---------------------------------------------------------------------------|
D|---------------------------------------------------------------------------|
A|3--3-3----------3----5--5-5--5--5-7-5-7-3--3---------3--6--6-6-6-5--5-5-5-6|
E|-------3--3-3-3---3--------------------------3-3-3-3---3-------------------|

G|---------------------------------------------------------------------------|
D|---------------------------------------------------------------------------|
A|3--3-----------3----5--5--5--5--7-5--7--3--3----------3--------------------|
E|-----3--3-3-3----3---------------------------3--3-3-3---3-0--0-0--0--0-0-8\|

Bridge:
G|----------------------------------------------|
D|--------------------------------10---9----10--|
A|----------------5-------------8----8----8-----|
E|-5-------5--------5-5-------------------------|

Verse 1:
G|---------------------------------------------------------------------------|
D|---------------------------------------------------------------------------|
A|--------------------------3/-6-6-6-6-6-6-6\--------------------------------|
E|-5----0-3-0-5------5-------------------------------------------------------|

G|---------------------------------------------------------------------------|
D|------------------------------------10---9----10---------------------------|
A|---------------------3------------8----8----8------------------------------|
E|-5----0-3-0-5------5----5---0-3-0------------------------------------------|

G|---------------------------------------------------------------------------|
D|-----------------------------------------5---4---5-------------------------|
A|---------------------3--------------6--6---6---6---------------------------|
E|-5--5--0-3-0-5--5--5----5--5--0-3-0----------------------------------------|

G|---------------------------------------------------------------------------|
D|--------------------------------------10---9----10-------------------------|
A|---------------------3--------------8----8----8----------------------------|
E|-5--5--0-3-0-5--5--5----5--5--0-3-0----------------------------------------|

Chorus:
G|---------------------------------------------------------------------------|
D|---------------------------------------------------------------------------|
A|-3--3-3-------3----5--5-5--5--5--7-5--7--3--3-3------3-5-6-6-6-5--5--6-5-6-|
E|---------3--3---3-------------------------------3--3-----------------------|

G|---------------------------------------------------------------------------|
D|---------------------------------------------------------------------------|
A|-3-3-------3----5-5--5--5--7-5--7--3--3------3-----------------------------|
E|------3--3---3--------------------------3--3---3-0-0-0-0-0-0-0-0-----------|

G|---------------------------------------------------------------------------|
D|---------------------------------------------------------------------------|
A|-3-3-------3----5-5--5--5--7-5--7--3--3------3---6-6-6-5-5-5-6-------------|
E|------3--3---3--------------------------3--3---3---------------------------|

Bridge:
G|---------------------------------------------------------------------------|
D|---------------------------------------------------------------------------|
A|---------------------------------------------------------------------------|
E|-5-------------------------------------------------------------------------|

Verse 2:
G|---------------------------------------------------------------------------|
D|---------------------------------------------5-----------------------------|
A|---------------------3-------------6-6-6-6-6---6---------------------------|
E|-5--5--0-3-0-5--5--5----5--5--0-3------------------------------------------|

G|---------------------------------------------------------------------------|
D|---------------------------------------10---9----10------------------------|
A|-------------------3-----------------8----8----8---------------------------|
E|-5--5--0-3-0-5--5----0-3-5--5--0-3-0---------------------------------------|

G|---------------------------------------------------------------------------|
D|----------------------------------------------------5---4---5--------------|
A|------------------------------------------------6-6---6---6---6------------|
E|-5--3-5--0-3-0-5--5-3-5--0-3-0--5--5-3-5--0-3-0----------------------------|

G|---------------------------------------------------------------------------|
D|----------------------------------------------------10---9----10-----------|
A|----------------------3------5--------------------8----8----8--------------|
E|-5--5-3-5--0-3-0-5--5---5--0---0--5--5-3-5--0-3-0--------------------------|

Chorus:
G|---------------------------------------------------------------------------|
D|---------------------------------------------------------------------------|
A|-3--3-3-------3----5--5-5--5--5--7-5--7--3--3-3------3---6-6-6-5--5--5-6---|
E|---------3--3---3-------------------------------3--3-----------------------|

G|---------------------------------------------------------------------------|
D|---------------------------------------------------------------------------|
A|-3-3-------3----5-5--5--5--7-5--7--3--3------3-----------------------------|
E|------3--3---3--------------------------3--3---3-0-0-0-0-0-0-8\------------|

G|---------------------------------------------------------------------------|
D|-------------------------------------------------------------5-------------|
A|-3-3-------3----5--5-5--5--5-7--5-7--3--3------3---6-6-6-6-6---6-----------|
E|------3--3---3----------------------------3--3---3-------------------------|

Bridge:
G|------------------------------------------------------------------------7--|
D|---------------------------------------------------------------------9-----|
A|------------------3--3-3--------3-5--7--7-7--7--7-5-7-10--10-10--10--------|
E|-5--5-5--5--3-5-3---------3--3---------------------------------------------|

G|--------------------------------------------------------------7------------|
D|-7--5-7--5-7-------------------------5---------------------9---------------|
A|-------------7-3--3------3-5-7--5-7----7-10-10--10-10--10------------------|
E|--------------------3--3---------------------------------------------------|

G|--------------------------------------------------------------9--7h9p7-----|
D|----------------------------------------------------------9-9--------------|
A|------------------3--3-3------3-5-7--7-5--7--7-5-7--10-10------------------|
E|-5--5-3--5--3-5-0--------3--3----------------------------------------------|

G|---------------------------------------------------------------------------|
D|---------------------------------------------------------------------------|
A|-----------------3--3-3------3-5--7--7-5-7----5-7--------------------------|
E|-5--5-3--5--3-5---------3--3----------------7------3-----------------------|

Solo:
G|---------------------------------------------------------------------------|
D|---------------------------------------------------------------------------|
A|---------------------3--3---3--3----3-5---------------------------2---2-5--|
E|-5--5-3--5--5--5-3-0------3-------3-----0--0-0--0--0--0-3--3-3--3---3------|

G|---------------------------------------------------------------------------|
D|---------------------------------------------------------------------------|
A|----------3-------3--3---3----3-5-----------------------------2---2/5------|
E|-5--5-3-5---3-5-3------3----3-----0--0-0-0--0-0-8\--3--3-3--3---3----------|

G|----------------------------------------------------5--4--5--4--5----------|
D|---------------------------------------------------3-33-33-33-33-3---------|
A|---------------------------------------------------------------------------|
E|-5--5-5-5--0-3-5-5--5-5-3-5--0--0-5--5-3-5--0-3-5--------------------------|

Bridge, outro:
G|---------------------------------------------------------------------------|
D|---------------------------------------------------------------------------|
A|-3--3------3---5--5-5--7-5-7-3--3------3--6--6-6-5--6-6-6------------------|
E|------3--3---3--------------------3--3-------------------------------------|

G|---------------------------------------------------------------------------|
D|---------------------------------------------------------------------------|
A|-3--3-3------3---5--5-5-5--5-5h7-3--3-3------3-----------------------------|
E|--------3--3---3------------------------3--3---3-0-0-0-0-0-0-8-0-----------|

G|---------------------------------------------------------------------------|
D|-------------------------------------------------------------5-------------|
A|-3--3-3------3---5--5-5-5--5-5h7-3--3-3------3---6-6-6-5-5-5---5-----------|
E|--------3--3---3------------------------3--3---3---------------------------|

G|---------------------------------------------------------------------------|
D|---------------------------------------------------------------------------|
A|-3--3-3------3---5--5-5-5--5-5h7-3--3-3------3-----------------------------|
E|--------3--3---3------------------------3--3---3-0---0--0--8---------------|

===============================================================================
Notes: 

If You have problems with this tab, write Me a mail what's wrong with it
instead of giving it a bad rating! It'd be better for everyone! Thx!


| /  slide up
| \  slide down
| h  hammer-on
| p  pull-off
| ~  vibrato
| +  harmonic
| x  Mute note
===============================================================================
Добавлено: 18.04.2012
Другие материалы по этой песне:

Страница создана 01.03.2012
http://primanota.ru/rush/good-news-first-chords.htm
Привет, Гость.
Предлагаем пройти революционный курс по гитаре.
Подарок от PrimaNota.Ru, забирай!