PrimaNota.ru - самый крупный в мире бесплатный архив песенных текстов, аккордов, табулатур и нот


Runaways - Lovers - аккорды и текст, таба, видео

Регистрация Запомнить меня
Войти через:  Facebook Google Twitter Vk Yandex Mail.ru

Runaways - Lovers - аккорды и текст, таба, видео

Печатать
Просмотров: 191
Lovers
Runaways
LOVERS
Written by kim Fowley, Joan Jett, Lita Ford, Sandy West, Jackie Fox and
Cherrie Currie
Taken from the awesome 1976 album THE RUNAWAYS
Transcribed by Christina Capasso
Email me at GnRsSLASH@hotmail.com

INTRO RIFF              VERSE
E--------------------|--------------------------------------------------
B--------------------|--------------------------------------------------
G--------------------|--------------------------------------------------
D--------------------|--4-4--4-4--4-4--4-4------------------------------
A---------4---0--2-2-|--4-4--4-4--4-4--4-4----------------4---0--2-2----
E--4--2-2------------|--2-2--2-2--2-2--2-2--------4--2-2----------------
     Intro   riff     I want something...
    repeat 4x         I want it nice...

E-----------------------------------------------------------------------
B-----------------------------------------------------------------------
G-----------------------------------------------------------------------
D--6-6--6-6--6-6--6-6---------------------------------------------------
A--6-6--6-6--6-6--6-6----------------4---0--2-2-------------------------
E--4-4--4-4--4-4--4-4---------4--2-2------------------------------------
All night long...
Make me scream...

CHORUS
-notes are written as played 4x but strum the chords to get rhythm
E-----------------------------------------------------------------------
B-----------------------------------------------------------------------
G--6--6--6--6---------------------4--4--4--4----------------------------
D--6--6--6--6---6--6--6--6--------4--4--4--4---4--4--4--4---------------
A--4--4--4--4---6--6--6--6--------2--2--2--2---4--4--4--4---------------
E---------------4--4--4--4---------------------2--2--2--2---------------

   We lovers   never...
   Stop and go so ...

E-----------------------------------------------------------------------
B-----------------------------------------------------------------------
G--8--8--8--8-------------------6--6--6--6------------------------------
D--8--8--8--8---8--8--8--8------6--6--6--6--6--6--6--6------------------
A--6--6--6--6---8--8--8--8------4--4--4--4--6--6--6--6------------------
E---------------6--6--6--6------------------4--4--4--4------------------

I'm the one     for you...
I won't cry I'll tell you...

VERSE 2
E-----------------------------------------------------------------------
B-----------------------------------------------------------------------
G-----------------------------------------------------------------------
D-----------------------4-4--4-4--4-4--4-4------------------------------
A----------4---0-2-2----4-4--4-4--4-4--4-4-------------4---0--2-2-------
E--4--2-2---------------2-2--2-2--2-2--2-2-----4--2-2-------------------
   repeat 4x         I wanna kiss wet...
                    I wanna tell ya...

E-----------------------------------------------------------------------
B-----------------------------------------------------------------------
G-----------------------------------------------------------------------
D--6-6--6-6--6-6--6-6---------------------------------------------------
A--6-6--6-6--6-6--6-6------------------------4---0--2-2-----------------
E--4-4--4-4--4-4--4-4---------------4--2-2------------------------------
   All night long it...
   Make me scream hey...

REPEAT CHORUS
Go to www.therunaways.com for full lyrics :)
The Runaways ROCK!!


     
Добавлено: 26.11.2013
Другие материалы по этой песне:
  • Аккорды и текст

Страница создана 17.04.2012
http://primanota.ru/runaways/lovers-chords.htm
Привет, Гость.
Предлагаем пройти революционный курс по гитаре.
Подарок от PrimaNota.Ru, забирай!