PrimaNota.ru - самый крупный в мире бесплатный архив песенных текстов, аккордов, табулатур и нот


Runaways - Saturday Night Special - текст песни, таба, бас-таба, видео

Регистрация Запомнить меня
Войти через:  Facebook Google Twitter Vk Yandex Mail.ru

Runaways - Saturday Night Special - текст песни, таба, бас-таба, видео

Печатать
Просмотров: 279
Уроки эстрадного вокала в Санкт-Петербурге
Hey guys! This is my first tab and all I could figure out so far. I KNOW THAT THIS SAYS 
SONG BUT THIS IS JUST THE INTRO/VERSES, NOT THE ENTIRE SONG. This is the part that Joan 
(rhythm). Enjoy! ^-^
~Brianna
~~~~~~~~~~~~~~~~~~~~~~~~~~~~~~~~~~~~~~~~~~~~~~~~~~~~~~~~~~~~~~~~~~~~~~~~~~~~~~~~

-> (Intro)

e|---------------------------------------------------------------------|
B|---------------------------------------------------------------------|
G|-------------------2-2-2-2-2-----------------------2-2-2-2-2---------|
D|---------------2---2-2-2-2-2---2---------------2---2-2-2-2-2---2-----|x2
A|---4-4-4-4-4---2---0-0-0-0-0---2---4-4-4-4-4---2---0-0-0-0-0---2-----|
E|---2-2-2-2-2---0---------------0---2-2-2-2-2---0---------------------|

-> (Verse 1)

   "Let's talk about women...Let's talk about love...
Let's talk about b****in' and the comin' I've done...
I live for the weekend; it's part of the script.
You prayed for an angel well,
Hey, this is it!..." --> (LET THE LAST STRUM RING OUT)

e|---------------------------------------------------------------------|
B|---------------------------------------------------------------------|
G|-------------------2-2-2-2-2-----------------------2-2-2-2-2---------|
D|---------------2---2-2-2-2-2---2---------------2---2-2-2-2-2---2-----|
A|---4-4-4-4-4---2---0-0-0-0-0---2---4-4-4-4-4---2---0-0-0-0-0---2-----|
E|---2-2-2-2-2---0---------------0---2-2-2-2-2---0---------------0-----|

e|---------------------------------------------------------------------|
B|---------------------------------------------------------------------|
G|-------------------2-2-2-2-2-----------------------2-2-2~~~----------|
D|---------------2---2-2-2-2-2---2---------------2---2-2-2~~~----------|
A|---4-4-4-4-4---2---0-0-0-0-0---2---4-4-4-4-4---2---0-0-0~~~----------|
E|---2-2-2-2-2---0---------------0---2-2-2-2-2---0---------------------|

(REPEAT WITH THE FOLLOWING PARTS)

-> (Verse 1 (continued))
"You can dress me in ribbons...You can tie me in knots
...You get out the camera; Provocative shots...
You do what you want to; Let's see what you've got...
And if I don't like it, I'll just tell you to stop!!..."

-> (Verse 2)
"You wanna respect me...How long will that last?...
You wanna protect me...I don't need it you jerk...
I'm lookin' for action, I'm hungry and hot...
You wanna know why? That's easy, why not?!..."


Link to the video: http://www.youtube.com/watch?v=aN2LehZ_KdQ
Добавлено: 19.05.2012
Другие материалы по этой песне:
  • Аккорды и текст

Страница создана 19.05.2012
http://primanota.ru/runaways/saturday-night-special-chords.htm
Привет, Гость.
Предлагаем пройти революционный курс по гитаре.
Подарок от PrimaNota.Ru, забирай!