PrimaNota.ru - самый крупный в мире бесплатный архив песенных текстов, аккордов, табулатур и нот


Runaways - Is It Day Or Night - текст песни, таба, бас-таба, видео

Регистрация Запомнить меня
Войти через:  Facebook Google Twitter Vk Yandex Mail.ru

Runaways - Is It Day Or Night - текст песни, таба, бас-таба, видео

Печатать
Просмотров: 233
-------------------------------------------------------------------------------
                             Is It Day Or Night? - The Runaways
-------------------------------------------------------------------------------
Tabbed by: suziqglitter
E-mail: stella.on.the.run56@gmail.com

Tuning: Standard

This is the rhythm part. Riff below should be played during intro and two first verses.
e|---------------------------------------------------------------------------|
B|---------------------------------------------------------------------------|
G|---------------------------------------------------------------------------|
D|-----------7-----------7-----------7---------------------------------------|
A|---7---7---5---7---7---5---7---7---5---7---10~-----------------------------|
E|---5---5-------5---5-------5---5-------5---8~------------------------------|

Chorus (this goes three times)
e|---------------------------------------------------------------------------|
B|---------------------------------------------------------------------------|
G|---------------------------------------------------------------------------|
D|-----------------------7---------------------------------------------------|
A|----12~---10~--7---7---5---7---10~-----------------------------------------|
E|----10~---8~---5---5-------5---8~------------------------------------------|

e|---------------------------------------------------------------------------|
B|---------------------------------------------------------------------------|
G|---------------------------------------------------------------------------|
D|-----------7-----------7-----------7---------------------------------------|
A|---7---7---5---7---7---5---7---7---5---7---9~------------------------------|
E|---5---5-------5---5-------5---5-------5---7~------------------------------|

During the solo (just listen to the record and follow the time)
e|---------------------------------------------------------------------------|
B|---------------------------------------------------------------------------|
G|---------------------------------------------------------------------------|
D|---------10-----------10-----------10--------------------------------------|
A|-10-10---8---10--10---8---10--10---8---10---13~----------------------------|
E|-8--8--------8---8--------8---8--------8----11~----------------------------|

Chorus after solo (playing three times, after goes part "during the solo" - 'till the end)
e|---------------------------------------------------------------------------|
B|---------------------------------------------------------------------------|
G|---------------------------------------------------------------------------|
D|------------------------10-------------------------------------------------|
A|----15~--13~---10--10---8---10--13~----------------------------------------|
E|----13~--11~---8---8--------8---11~----------------------------------------|

e|---------------------------------------------------------------------------|
B|---------------------------------------------------------------------------|
G|---------------------------------------------------------------------------|
D|---------10-----------10-----------10--------------------------------------|
A|-10-10---8---10--10---8---10--10---8---10---13~----------------------------|
E|-8--8--------8---8--------8---8--------8----11~----------------------------|



************************************

| /   slide up
| \   slide down
| h   hammer-on
| p   pull-off
| ~   vibrato
| +   harmonic
| x   Mute note
| b   Bend
| pb  Pre-bend
| br  Bend release
| pbr Pre-bend release
| brb Bend release bend

************************************
Добавлено: 08.03.2016
Другие материалы по этой песне:
  • Аккорды и текст

Страница создана 08.07.2012
http://primanota.ru/runaways/is-it-day-or-night-chords.htm
Привет, Гость.
Предлагаем пройти революционный курс по гитаре.
Подарок от PrimaNota.Ru, забирай!