PrimaNota.ru - самый крупный в мире бесплатный архив песенных текстов, аккордов, табулатур и нот


Runaways - Neon Angels On The Road To Ruin - текст песни, таба, бас-таба, видео

Регистрация Запомнить меня
Войти через:  Facebook Google Twitter Vk Yandex Mail.ru

Runaways - Neon Angels On The Road To Ruin - текст песни, таба, бас-таба, видео

Печатать
Просмотров: 193
I saw there wasn't a tab for this yet and it's a GREAT song,
pretty straightforward.
This will mostly be the rhythm guitar (Joan Jett)
and a little bit of the lead (Lita Ford). 

INTRO
e-----------------------------------------------------|<-- play this twice,
b-----------------------------------------------------|lead guitar plays 
g-----------------------------------------------------|both times while 
d--------------2~---------------------------------2~--|rhythm plays the  
a-----------------------------------------------------|first and then holds
E--0-0-0--3h4-------4-4-0--2h3-2h3----0-0-0--3h4------|an E power chord for
                                                        the repeat. THEN..
e-----------------------------------------------------------------------|
b-----------------------------------------------------------------------|
g-----------------------------------------------------------------------|
d------------------2~-----------------------------2~--------------------|
a-----------------------------------------------------------------------|
E-(\12)-0-0-0--3h4----4-4-0--2h3-2h3---0-0-0--3h4-----4-4-0--2h3-2h3----| 

   ------------------------------------------------|
   ------------------------------------------------|
   ------------------------------------------------|
   -------------2~-----------------------------2~--|
   ------------------------------------------------|
   --0-0-0--3h4----4-4-0--2h3-2h3---0-0-0--3h4-----| 

VERSE: 
(I believe Joan played it this way.)
              palm mute these, use down and up pick strokes,
              listen to strum pattern on the song, it's fairly simple.      
e------------------|-----------------|------------------------|
b------------------|-----------------|------------------------|repeat for
g--9-9-9-9-9-9-9-9-|-9-9-9-9-9-9-9-9-|-9-9-9-9-9-9--7---------|entire verse
d--9-9-9-9-9-9-9-9-|-9-9-9-9-9-9-9-9-|-9-9-9-9-9-9--7--7------|
a--7-7-7-7-7-7-7-7-|-7-7-7-7-7-7-7-7-|-7-7-7-7-7-7--5--7------|
E------------------|-----------------|-----------------5------|  
In the last repeat before the chorus Lita adds a little fill on
the A string. It's pretty easy to hear, once again just listen to song:
a---5h7-7-7-7-7----5h7-7-7-7-7----|

CHORUS (up and down alternating pick strokes)I attempted to match the words
          with the syncopation as much as possible, maybe it'll help.
e-----------------|---------------------|
b-----------------|---------------------| PLAY THIS FOUR TIMES.
g-----------------|----------------9----| on fourth time, play first 
d-----------------|----------------9----| measure and then  hold the first
a-7-7-9--7-7-7-9--|-9-9-11--9-9-9--7----| power chord of the second measure 
E-5-5-5--5-5-5-5--|-7-7--7--7-7-7-------| (it's a B, d-9--
    "Let    you     We  been  do-  -in'"             a-9--
       me tell what                                  E-7--)
 "Ne--on angels   the   to    ru-  -in." 
               on   road


VERSE
CHORUS


SOLO I'm not sure what the solo is, if anyone knows it
     please tab it out or post some information in the
     comments. I'm dying to learn it.  
Rhythm guitar under solo plays:
e------------------|------------------| repeat these
b------------------|------------------| two measures 
g-9-9-9-9-9-9-9-9--|-9-9-9-9-9-9-7----| FOUR times, then... 
d-9-9-9-9-9-9-9-9--|-9-9-9-9-9-9-7-7--|
a-7-7-7-7-7-7-7-7--|-7-7-7-7-7-7-5-7--| 
E------------------|---------------5--|
                                       
e------------------|------------------|
b------------------|------------------| play these two
g------------------|-------------5----| measures TWICE,
d-7-7-7-7-7-7-7-7--|-7-7-7-7-7-7-5--5-| then...
a-7-7-7-7-7-7-7-7--|-7-7-7-7-7-7-3--5-| 
E-5-5-5-5-5-5-5-5--|-5-5-5-5-5-5----3-|

e-----------------|
b-----------------| play this FOUR
g-9-9-9-9-9-9-7---| times.
d-9-9-9-9-9-9-7-7-|
a-7-7-7-7-7-7-5-7-|
E---------------5-|


VERSE
CHORUS
INTRO
-----------------
That's it. Please comment with any info about the solo or corrections.
PerryJett92
        
Добавлено: 27.07.2012
Другие материалы по этой песне:
  • Аккорды и текст

Страница создана 24.02.2012
http://primanota.ru/runaways/neon-angels-on-the-road-to-ruin-chords.htm
Привет, Гость.
Предлагаем пройти революционный курс по гитаре.
Подарок от PrimaNota.Ru, забирай!