PrimaNota.ru - самый крупный в мире бесплатный архив песенных текстов, аккордов, табулатур и нот


Rolling Stones - Honky Tonk Women Live - таба, бас-таба, видео

Регистрация Запомнить меня
Войти через:  Facebook Google Twitter Vk Yandex Mail.ru

Rolling Stones - Honky Tonk Women Live - таба, бас-таба, видео

Печатать
Просмотров: 142
HONKY TONK WOMEN  (Live)

As recorded by The Rolling Stones
(From the 1970 Album GET YER YA-YA'S OUT! THE ROLLING STONES IN CONCERT)

Words and Music by Mick Jagger & Keith Richards

Transcribed by Slowhand


Gtr I (D G D G B D) - 'Keith Richards - Electric Guitar / Open G'
Gtr II (E A D G B E) - 'Mick Taylor - Electric Guitar'


 Intro
  Q=112
  G
 4/4
  Gtr I (El. Gtr. / Open G - DGDGBD)
  Q  q  E E E E   +Q   q  E E E E   +Q   q  E E E E   +Q   Q  E E E E
|---------------|-----------------|-----------------|-----------------|
|----0----------|-----------------|------0----------|-----------------|
|-0--0----0---0-|-(0)--0----0---0-|-(0)--0----0---0-|-(0)-----------0-|
|-0--0----0---0-|-(0)--0----0---0-|-(0)--0----0---0-|-(0)-----------0-|
|-0-------0---0-|-(0)--0----0---0-|-(0)-------0---0-|-(0)-------0---0-|
|---------------|-----------------|-----------------|-----------------|


  +Q   q  E E E E   +Q   q  E E E E   +Q   q  E E E E   +Q   a q  a S S E E E
|-----------------|-----------------|-----------------|--------0----0---0-0-0--|
|-----------------|-----------------|-----------------|------------------------|
|-(0)--0----0---0-|-(0)--0----0---0-|-(0)--0----0---0-|-(0)--2s4--2s4s2-0---0--|
|-(0)--0----0---0-|-(0)--0----0---0-|-(0)--0----0---0-|-(0)---------------2----|
|-(0)--0----0---0-|-(0)--0----0---0-|-(0)--0----0---0-|-(0)--------------------|
|-----------------|-----------------|-----------------|------------------------|


                                 1st & 2nd Verses
                                  G
  E    +E  E E E E        E E     +Q   q  E E E E
|-0--------0-0-0-0--------0-0-||--(0)-------------|
|-----------------------------||o------0----------|
|-2----(2)-0---0-2--------0-0-||--(0)--0----0---0-|
|------------2----------------||-------0----0---0-|
|-----------------------------||o-----------0---0-|
|-----------------------------||------------------|
|
| Gtr II (El. Gtr.)
| E    +E  E E E S    +S  E E     +Q   Q  H
|-----------------------------||------------------|
|-----------------------------||o-----------------|
|-2pb4r(2)-0---0-2pb4r(2)p0-0-||--(0)-------------|
|------------2----------------||------------------|
|-----------------------------||o-----------------|
|-----------------------------||------------------|


                 C
  +Q   q  a E Q  E   +Q   q  E E E        E
|------------------|--------------------------|
|----------------5-|-(5)--5----6----------6p==|
|-(0)---------0--5-|-(5)--5----5----------5---|
|-(0)--0---------5-|-(5)--5----5----------5---|
|-(0)-----2s4----5-|-(5)--5-------------------|
|------------------|--------------------------|
|
|  W                  H      E E S    +S  E
|------------------|--------------------------|
|------------------|-----------8--------------|
|------------------|-------------7pb9r(7)p5---|
|------------------|--------------------------|
|------------------|--------------------------|
|------------------|--------------------------|


                                       A
  Q       E E E E E   E   Q  Q  a E Q  E
|-----------5p3-0-0-----|----------------|
|-5---------------------|--------------2-|
|-----------0-----3b4-0-|-----------0--2-|
|-----------------------|--------------2-|
|-----------------------|-0-----2s4----2-|
|-----------------------|----------------|
|
| E   Q     e H           W
|-----------------------|----------------|
|-----------8-----------|----------------|
|-7b9-7b9---------------|----------------|
|-----------------------|----------------|
|-----------------------|----------------|
|-----------------------|----------------|


                D
  +Q   q  E E E E   +Q   Q  E  E E         E
|-----------------|-----------------------------|
|-(2)--3--3p2---7-|-(7)--------8-----------8p===|
|-(2)--2--2-----7-|-(7)--------7-----------7----|
|-(2)--2--2-----7-|-(7)--------7-----------9p===|
|-(2)-----------7-|-(7)-------------------------|
|-----------------|-----------------------------|
|
|  W                 H      E  E S     +S  E
|-----------------|-----------------------------|
|-----------------|-----------10----------------|
|-----------------|--------------9pb11r(9)p7----|
|-----------------|-----------------------------|
|-----------------|-----------------------------|
|-----------------|-----------------------------|


                                        G
   Q            Q    a E E a E E   +Q   q  E E E E
|--------------------------------|-----------------|
|--7-----------------------------|------0----------|
|-(7)--------------------0-------|------0----0---0-|
|--7-----------------------------|------0----0---0-|
|--------------------2s4---4s2-0-|-(0)-------0---0-|
|--------------------------------|-----------------|
|
|  E     +Q        E   H            W
|-----------------10-------------|-----------------|
|-----------------10-------------|-----------------|
|--9pb11r(9)b11------------------|-----------------|
|--------------------------------|-----------------|
|--------------------------------|-----------------|
|--------------------------------|-----------------|


                 C
  +Q   Q  a E Q  E   +Q   q     E  E  E E
|------------------|------------------------|
|----------------5-|-(5)--5--------6----6p==|
|-(0)---------0--5-|-(5)--5--------5----5---|
|-(0)------------5-|-(5)--5--------5----5---|
|-(0)-----2s4----5-|-(5)--5-----------------|
|------------------|------------------------|
|
|  W                  Q   E  E  E  E  E E
|------------------|--------10s12-11-10-8---|
|------------------|------------------------|
|------------------|--------10s12-11-10-9---|
|------------------|------------------------|
|------------------|------------------------|
|------------------|------------------------|


                                     D
  Q   E E E E E   E   +Q   Q  a E Q  E
|-------5p3-0-0-----|------------------|
|-5-----------------|----------------7-|
|-------0-----3b4-0-|-(0)---------0--7-|
|-------------------|----------------7-|
|-------------------|---------2s4----7-|
|-------------------|------------------|
|
| E E E E H            W
|-------------------|------------------|
|---8-6-5-----------|------------------|
|-------------------|------------------|
|---8-7-5-----------|------------------|
|-------------------|------------------|
|-------------------|------------------|


                      G
  +Q   E E E S S Q    q  q         q      E  E
|-------------------|--------------------------------|
|-(7)------8--------|-0--0---------0-----------------|
|-(7)------7--------|-0--0---------0-----------------|
|-(7)----9---9p7p0--|-0--0---------0-----------------|
|-(7)---------------|-0--0---------0---------0-------|
|-------------------|--------------------------------|
|
|  W                  Q  E  E     +E   E  E  E
|-------------------|-----------------12-------------|
|-------------------|--------------------15----------|
|-------------------|------14b16-(14)-------14b16r===|
|-------------------|--------------------------------|
|-------------------|--------------------------------|
|-------------------|--------------------------------|


                                            Chorus
                                             G
   +E      E  E     E  E  E      E      E    +E  E e  E  e     E  e       E
|-----------------------------------------||---------------------------------|
|-------------1--------3--0------1------0-||-(0)---1-----3--------1----------|
|----------0--0-----0--0---------0------0-||-(0)---0-----0--------0----------|
|----------0----------------------------0-||-(0)---0-----0--------0----------|
|--(0)------------------------------------||-----0----0--------0----------7--|
|-----------------------------------------||---------------------------------|
|
|                                             ~~~
|  +S   S  E  S  S  E  E  E     +S   S  E     Q.      E  E     E  E      +E
|-----------------------------------------||---------------------------------|
|---------------------15------------------||------------------15-------------|
|-(14)p12----------12----14b16r(14)p12----||-12------12-14b16----14pb16r(14)-|
|---------14-12h14---------------------14-||---------------------------------|
|-----------------------------------------||---------------------------------|
|-----------------------------------------||---------------------------------|


  D                                      G
    e  E  e     E  e  E       e      E    e  E e    E  e E    e  E
|--------------------------------------|----------------------------|
|---7-----8-------10----------8--------|--0----1-------3------1-----|
|---7-----7--------7----------7--------|--0----0-------0------0-----|
|---7-----7--------7----------7--------|--0----0-------0------0-----|
|------7--------7-----7--------------0-|-----0------0----0-------0--|
|--------------------------------------|----------------------------|
|
|  +Q     S  S  E  E  E      +S   S  E    E  E E   +E  E E   +E  E
|--------------------------------------|---------------3---------3--|
|-----------------15-------------------|----------------------------|
|-(14)---------12----14pb16r(14)p12----|-12\---2b4-(2)---2b4-(2)----|
|--------12h14----------------------14-|----------------------------|
|--------------------------------------|----------------------------|
|--------------------------------------|----------------------------|


  e    E  e E    e  E e E   e E e E     e  E e E
|-------------------------|----------------------|
|-0-------1------3----1---|-0---1-------3----1---|
|-0-------0------0----0---|-0---0-------0----0---|
|-0-------0------0----0---|-0---0-------0----0---|
|------0----0-------0---0-|---0---0--------0---7-|
|-------------------------|----------------------|
|
| E   +E  E E   +E  E E E   E E E E    +E  E E E
|---------3---------3-----|----------------------|
|-------------------------|-0---3----------------|
|-2b4-(2)---2b4-(2)---2p0-|---0---2pb4r(2)p0-----|
|-------------------------|------------------2-0-|
|-------------------------|----------------------|
|-------------------------|----------------------|


                             1.
  D                           G
   e  E e E  e E     e    E   e E    e  E  e  E e E
|---------------------------|---------------------------|
|--7----8---10-------8------|-0------1-----3----1-------|
|--7----7----7-------7------|-0------0-----0----0-------|
|--7----7----7-------7------|-0------0-----0----0-------|
|-----7---7----7----------0-|---0-------0-----0---0-----|
|---------------------------|---------------------------|
|
| +Q    E E  E E    +S  S E   E E   +E  E +E  Q   E
|---------------------------|---------------------------|
|------------3--------------|-----------0-(0)-3---------|
|---------0----2pb4r(2)p0---|-0-2b4-(2)-----------2pb4r=|
|-(0)---------------------2-|---------------------------|
|---------------------------|---------------------------|
|---------------------------|---------------------------|


                                      2.
                                       G
   E      +E  E   E E E     E    E     H           E  E   Q
|-----------------------------------||----------------3---3------|
|--3----------3---3-3-3-----3----3-o||-0-------------------------|
|--2pb4r==(2)-0-----0-2-----0----0--||-0------------------5b7----|
|-----------------2-----------------||-0-------------------------|
|----------------------------------o||---------------------------|
|-----------------------------------||---------------------------|
|
| +S    S  E  S S E E E    +S  S E     Q   Q       E  E  +E    E
|-----------------------------------||------------15-------------|
|-------------------3--------------o||----15b17======15r(15)--12-|
|-(2)p==0---------0---2pb4r(2)p0----||-0-------------------------|
|----------2--0h2----------------2--||---------------------------|
|----------------------------------o||---------------------------|
|-----------------------------------||---------------------------|


   E    E  Q        Q            Q
|--3----3--3--------3------------3--------||
|-----------------------------------------||
|--5b7-----5b7------5b7----------5b7------||
|-----------------------------------------||
|-----------------------------------------||
|-----------------------------------------||
|
|  E    E  E     E  E    E      +S   S  E
|-12------------12------------------------||
|------15----------15---------------------||
|---------14b16---------14pb16r(14)p12----||
|--------------------------------------14-||
|-----------------------------------------||
|-----------------------------------------||


 Guitar Solo
  G                                               C
  Q.      E    +E   E Q       E Q     E Q      E  E
|-3-------3----(3)--3-3-----|-3-3-----3--------3----|
|---------------------------|-----------------------|
|-5b7-----5b7==(5)r---5b7---|---5b7-----5b7=======5r|
|---------------------------|-----------------------|
|---------------------------|-----------------------|
|---------------------------|-----------------------|
|
| E   E E E     E   E E   E   E E   E E E    E E  E
|---------------------------|-----------------------|
|---------------------------|-----------------------|
|---------------------------|-----------------------|
|---------------------------|-----------------------|
|-5-----7-------5-----7-----|-5-----7---5------7/---|
|-3---3-3-3-----3---3-3---3-|-3-3---3-3-3----3-3/-8-|


  +H          E   E  E    +E    +H          E Q       E
|-----------------3-----------|-------------3---------3-|
|-----------------------------|-------------------------|
|-(5)---------5b7----5pb7r(5)-|-(5)-----------5b7-------|
|-----------------------------|-------------------------|
|-----------------------------|-------------------------|
|-----------------------------|-------------------------|
|
|  E  E  E E  E   E  E     E     E  E  E E  E E    E  E
|-----------------------------|-------------------------|
|-----------------------------|-------------------------|
|-----------------------------|-------------------------|
|-----------------------------|-------------------------|
|-10----12---10-----12--------|-10----12---10-----12\---|
|--8--8--8-8--8---8--8-----8--|--8--8--8-8--8-8----8\-3-|


  G                         A                        D
  Q     E E    +E   Q   E   +E  Q     E E    +E   E   E
|-------3-----------3---2-|-(2)-------2-----------------|
|-------------------------|-----------------------------|
|-5b7-----5b7==(5)r-------|-----4b6-----4b6==(4)r-2-----|
|-------------------------|-----------------------------|
|-------------------------|-----------------------------|
|-------------------------|-----------------------------|
|
| E   E E E     E   E E E    E  E   E E E     E   E   E
|-------------------------|-----------------------------|
|-------------------------|-----------------------------|
|-------------------------|-----------------------------|
|-------------------------|-----------------------------|
|-5-----7-------5-----7---|--7------9---7---------9/----|
|-3---3-3-3-----3---3-3-3-|--5--5---5-5-5-----5---5/-10-|


                                                                              G
   E  Q        E  E     E  S     +S   E    Q     E     E     E     E     E     E
|--7-----------7--------7---------------|-------------------------------------------|
|---------------------------------------|-------10b12-10b12-10b12-10b12-10b12-10b12-|
|-----9b11--------9b11-----9pb11r(9)p=7-|-------------------------------------------|
|---------------------------------------|-------------------------------------------|
|---------------------------------------|-------------------------------------------|
|---------------------------------------|-------------------------------------------|
|
|  E  E     E  E  E     E  E          E    E  E  E     E     E     E     E     E
|---------------------------------------|-------------------------------------------|
|---------------------------------------|-------------------------------------------|
|---------------------------------------|-------------------------------------------|
|---------------------------------------|-------------------------------------------|
|-12-------14----12-------14------------|-12----14----------12----------14\---------|
|-10-10----10-10-10----10-10---------10-|-10-10-10----10----10----10----10\----3----|


                                                       C
                         ~~~~~~~~
   E      +E  E E E  E e E   +Q     E E  E      +E  Q
|--------------------------|-----------------------------|
|-10pb12r(10)-8---8-10-8-8-|-(8)---10p8-10pb12r(10)-8----|
|---------------9----------|-----------------------------|
|--------------------------|-----------------------------|
|--------------------------|-----------------------------|
|--------------------------|-----------------------------|
|
|  E       E  E E E  E E E    E  E  E E  E       E  E  E
|--------------------------|-----------------------------|
|--------------------------|-----------------------------|
|--------------------------|-----------------------------|
|--------------------------|-----------------------------|
|--5----------7---5----7---|--5-----7----5----------7/---|
|--3-------3--3-3-3--3-3-3-|--3--3--3-3--3-------3--3/-8-|


     ~~                     ~~
   E Q.       E E  S S E    Q    Q     E E  E  E
|------------------------|---------------2-------|
|----8----------8-10p8---|--8---------------3--0-|
|-/9----------9--------9-|-------9\----0---------|
|------------------------|-----------------------|
|------------------------|-----------------------|
|------------------------|-----------------------|
|
|  E E   E E  E E  E   E    E E  E  E  E E  E  E
|------------------------|-----------------------|
|------------------------|-----------------------|
|------------------------|-----------------------|
|------------------------|-----------------------|
|-10----12---10---12-----|-10---12----10---12\---|
|--8-8---8-8--8-8--8---8-|--8-8--8--8--8-8--8\-3-|


  G                      D                                   G
                                     ~~                      ~~~
  E E E E  E      +E  E   E    E     Q     E  E      +E   E  E
|-5---7---------------------|----------------------------------|
|---------10pb12r(10)-8-----|-10b12-10-----8-10pb12r(10)--8--8-|
|---7---7-----------------9-|----------------------------------|
|---------------------------|----------------------------------|
|---------------------------|----------------------------------|
|---------------------------|----------------------------------|
|
| E E E E  E       E  E   E    E     E  E  E  E       E   E  E
|---------------------------|----------------------------------|
|---------------------------|----------------------------------|
|---------------------------|----------------------------------|
|---------------------------|----------------------------------|
|-5---7----5----------7/----|-12-------14----12----------14\---|
|-3-3-3-3--3-------3--3/-10-|-10----10-10-10-10------10--10\-3-|


 ~~~~~
  +Q    E  E     +E   Q    E       +E   Q.      +E  E  E  E
|--------------------14---------|------12------(12)---------||
|-(8)---------------------------|---------------------------||
|---------14b16-(14)------14b16-|-(14)----------------------||
|-------------------------------|---------------------12\---||
|-------------------------------|---------------------12\-0-||
|-------------------------------|---------------------------||
|
|  E  E E  E      E   E E  E        E   E  E E   E  E  E  E
|-------------------------------|---------------------------||
|-------------------------------|---------------------------||
|-------------------------------|---------------------------||
|-------------------------------|---------------------------||
|--5----7---------5-----7-------|---5------7-----5-----7----||
|--3--3-3--3------3---3-3--3----|---3---3--3-3---3--3--3--3-||


   Out-Chorus
    G              D                          G
    e E e E e E e   E    e  E  e  E  e  E  e  E
||--------------------|-------------------------|
||o-0---1---3---1-----|--7-----8----10-----8----|
||--0---0---0---0-----|--7-----7-----7-----7----|
||--0---0---0---0-----|--7-----7-----7-----7----|
||o---0---0---0-----7-|-----7-----7-----7-----0-|
||--------------------|-------------------------|
|
|   E E E E E E E   E    E  E  E  E  E  E  E  E
||--------------------|-------------------------|
||o-------------------|-------------------------|
||--------------------|-------------------------|
||--------------------|-------------------------|
||o-5---7---5---7/----|-12----14----12----14\---|
||--3-3-3-3-3-3-3/-10-|-10-10-10-10-10-10-10\-3-|


  e E e E e E e E   e E e E e E e E   3x
|-----------------|-------------------||
|-0---1---3---1---|-0---1---3---1----o||
|-0---0---0---0---|-0---0---0---0-----||
|-0---0---0---0---|-0---0---0---0-----||
|---0---0---0---0-|---0---0---0---0--o||
|-----------------|-------------------||
|
| E E E E E E E E   E E E E E E E E   3x
|-----------------|-------------------||
|-----------------|------------------o||
|-----------------|-------------------||
|-----------------|-------------------||
|-5---7---5---7---|-5---7---5---7----o||
|-3-3-3-3-3-3-3-3-|-3-3-3-3-3-3-3-3---||


                 D
  e E e E e E e   E    e  E  e  E  e  E  Q
|-------------------|------------------------|
|-0---1---3---1-----|--7-----8----10-----8---|
|-0---0---0---0-----|--7-----7-----7-----7---|
|-0---0---0---0-----|--7-----7-----7-----7---|
|---0---0---0-----7-|-----7-----7-----7------|
|-------------------|------------------------|
|
| E E E E E E E   E    E  E  E  E  E  E  E E
|-------------------|------------------------|
|-------------------|------------------------|
|-------------------|------------------------|
|-------------------|------------------------|
|-5---7---5---7/----|-12----14----12----14---|
|-3-3-3-3-3-3-3/-10-|-10-10-10-10-10-10-10---|


  N.C.
                                                                 ~~~~~~~~~~~~~
  E    E      +E   E     E     E  E      +E     E  E     E   E  +H        +W
|--------------------------------------------|-------------------------|---------*|
|-----17pb19r(17)-15----------15-------------|-------------------------|---------*|
|-----------------------14b16----14pb16r(14)-|-12-------12--12-(12)----|-(12)----*|
|--------------------------------------------|----14-------------------|---------*|
|--------------------------------------------|-------------------------|---------*|
|--------------------------------------------|-------------------------|---------*|
|
|                                                                ~~~~~~~~~~~~~
| E    E       E   E    +E     E  E       E     E  E    +E   E  +H        +W
|------3-------------------------------------|-------------------------|---------*|
|--------------3-----------------------------|--3----------------------|---------*|
|-2b4--------------2pb4r(2)p===0-------------|-----2pb4r(2)p=0--(0)----|--(0)----*|
|---------------------------------2-------0--|-------------------------|---------*|
|--------------------------------------------|-------------------------|---------*|
|--------------------------------------------|-------------------------|---------*|


Duration Legend
---------------
W - whole; H - half; Q - quarter; E - 8th; S - 16th; T - 32nd; X - 64th; a - acciaccatura
+ - note tied to previous; . - note dotted; .. - note double dotted
Uncapitalized letters represent notes that are staccato (1/2 duration)
Irregular groupings are notated above the duration line
Duration letters will always appear directly above the note/fret number it represents the
duration for.  Duration letters with no fret number below them represent rests.  Multi-
bar rests are notated in the form Wxn, where n is the number of bars to rest for.  Low
melody durations appear below the staff

Tablature Legend
----------------
 h   - hammer-on
 p   - pull-off
 b   - bend
 pb  - pre-bend
 r   - bend release (if no number after the r, then release immediately)
 /\  - slide into or out of (from/to "nowhere")
 s   - legato slide
 S   - shift slide
  - natural harmonic
[n]  - artificial harmonic
n(n) - tapped harmonic
 ~   - vibrato
 tr  - trill
 T   - tap
 TP  - trem. picking
 PM  - palm muting
\n/  - tremolo bar dip; n = amount to dip
 \n  - tremolo bar down
 n/  - tremolo bar up
/n\  - tremolo bar inverted dip
 =   - hold bend; also acts as connecting device for hammers/pulls
 <>  - volume swell (louder/softer)
 x   - on rhythm slash represents muted slash
 o   - on rhythm slash represents single note slash

Misc Legend
-----------
 |  - bar
||  - double bar
||o - repeat start
o|| - repeat end
*|  - double bar (ending)
 :  - bar (freetime)
 $  - Segno
 &  - Coda
Tempo markers -  = BPM(8/16=s8/s16), where s8 = swing 8ths, s16 = swing 16ths
Добавлено: 28.08.2015
Другие материалы по этой песне:

Страница создана 23.07.2013
http://primanota.ru/rolling-stones/honky-tonk-women-live-chords.htm
Привет, Гость.
Предлагаем пройти революционный курс по гитаре.
Подарок от PrimaNota.Ru, забирай!