PrimaNota.ru - самый крупный в мире бесплатный архив песенных текстов, аккордов, табулатур и нот


Rolling Stones - Live With Me Live - таба, бас-таба, видео

Регистрация Запомнить меня
Войти через:  Facebook Google Twitter Vk Yandex Mail.ru

Rolling Stones - Live With Me Live - таба, бас-таба, видео

Печатать
Просмотров: 115
LIVE WITH ME (Live)

As recorded by The Rolling Stones
(From the 1970 Album GET YER YA YA'S OUT! THE ROLLING STONES IN CONCERT)

Words and Music by Mick Jagger & Keith Richards

Transcribed by Slowhand


Gtr I (E A D G B E) - 'Mick Taylor - Electric Guitar'
Gtr II (E A D G B E) - 'Keith Richards - Electric Guitar'


 Intro
  Q=140
  N.C.
 4/4
  Gtr I
   q  Q  E Q  E   +E  E Q  E E E S S   Q  Q  E Q  E   +E  E E. S E E E S S
|---------------|--------------------|--------------|----------------------|
|---------------|--------------------|--------------|----------------------|
|---------------|--------------------|--------------|----------------------|
|---------------|--------------5-5h7-|--------------|----------------5-5h7-|
|-/5--3---------|-------4--5-7-------|-5--3---------|-------4--4-5-7-------|
|--------5-3--5-|-(5)-5--------------|-------5-3--5-|-(5)-5----------------|


  D            A
  Q   Q  E Q   E   +E  E E. S E E E S S
|----------------|----------------------|
|----------------|----------------------|
|----------------|----------------------|
|----------------|----------------5-5h7-|
|-5---3----------|-------4--4-5-7-------|
|--------5-3---5-|-(5)-5----------------|
|
| Gtr II
| E e Q  Q   E E   +E  e Q    H
|----------------|----------------------|
|-7-7----------2-|-(2)-2----------------|
|-7-7----------2-|-(2)-2----------------|
|-7-7----------2-|-(2)-2----------------|
|-5-5----------0-|-(0)-0----------------|
|----------------|----------------------|


  D            A
  Q   Q  E Q   E   +E  E E. S E E E S S
|----------------|-----------------------||
|----------------|-----------------------||
|----------------|-----------------------||
|----------------|----------------5-5h7--||
|-5---3----------|-------4--4-5-7--------||
|--------5-3---5-|-(5)-5-----------------||
|
| E e Q  Q   E E   +E  e Q    H
|----------------|-----------------------||
|-7-7----------2-|-(2)-2-----------------||
|-7-7----------2-|-(2)-2-----------------||
|-7-7----------2-|-(2)-2-----------------||
|-5-5----------0-|-(0)-0-----------------||
|----------------|-----------------------||


   1st - 3rd Verses
    $
    D            A
    Q   Q  E Q   E   +E  E E. S E E E S S
||-----------------|----------------------|
||o----------------|----------------------|
||-----------------|----------------------|
||-----------------|----------------5-5h7-|
||o-5---3----------|-------4--4-5-7-------|
||---------5-3---5-|-(5)-5----------------|
|
|   E e Q  Q   E E   +E  e Q    H
||-----------------|----------------------|
||o-7-7----------2-|-(2)-2----------------|
||--7-7----------2-|-(2)-2----------------|
||--7-7----------2-|-(2)-2----------------|
||o-5-5----------0-|-(0)-0----------------|
||-----------------|----------------------|


  D            A
  Q   Q  E Q   E   +E  E E. S E E E S S
|----------------|----------------------|
|----------------|----------------------|
|----------------|----------------------|
|----------------|----------------5-5h7-|
|-5---3----------|-------4--4-5-7-------|
|--------5-3---5-|-(5)-5----------------|
|
| E e Q  Q   E E   +E  e Q    H
|----------------|----------------------|
|-7-7----------2-|-(2)-2----------------|
|-7-7----------2-|-(2)-2----------------|
|-7-7----------2-|-(2)-2----------------|
|-5-5----------0-|-(0)-0----------------|
|----------------|----------------------|


  D            A
  Q   Q  E Q   E   +E  E E. S E E E S S
|----------------|----------------------|
|----------------|----------------------|
|----------------|----------------------|
|----------------|----------------5-5h7-|
|-5---3----------|-------4--4-5-7-------|
|--------5-3---5-|-(5)-5----------------|
|
| E e Q  Q   E E   +E  e Q    H
|----------------|----------------------|
|-7-7----------2-|-(2)-2----------------|
|-7-7----------2-|-(2)-2----------------|
|-7-7----------2-|-(2)-2----------------|
|-5-5----------0-|-(0)-0----------------|
|----------------|----------------------|


  D            A
  Q   Q  E Q   E   +E  E E. S E E E S S
|----------------|-----------------------|
|----------------|-----------------------|
|----------------|-----------------------|
|----------------|----------------5-5h7--|
|-5---3----------|-------4--4-5-7--------|
|--------5-3---5-|-(5)-5-----------------|
|
| E e Q  Q   E E   +E  e Q    H
|----------------|-----------------------|
|-7-7----------2-|-(2)-2-----------------|
|-7-7----------2-|-(2)-2-----------------|
|-7-7----------2-|-(2)-2-----------------|
|-5-5----------0-|-(0)-0-----------------|
|----------------|-----------------------|


  D            A
  Q   Q  E Q   E   +E  E E. S E E E S S
|----------------|----------------------|
|----------------|----------------------|
|----------------|----------------------|
|----------------|----------------5-5h7-|
|-5---3----------|-------4--4-5-7-------|
|--------5-3---5-|-(5)-5----------------|
|
| E e Q  Q   E E   +E  e Q    H
|----------------|----------------------|
|-7-7----------2-|-(2)-2----------------|
|-7-7----------2-|-(2)-2----------------|
|-7-7----------2-|-(2)-2----------------|
|-5-5----------0-|-(0)-0----------------|
|----------------|----------------------|


  D            A
  Q   Q  E Q   E   +E  E E. S E E E S S
|----------------|-----------------------|
|----------------|-----------------------|
|----------------|-----------------------|
|----------------|----------------5-5h7--|
|-5---3----------|-------4--4-5-7--------|
|--------5-3---5-|-(5)-5-----------------|
|
| E e Q  Q   E E   +E  e Q    H
|----------------|-----------------------|
|-7-7----------2-|-(2)-2-----------------|
|-7-7----------2-|-(2)-2-----------------|
|-7-7----------2-|-(2)-2-----------------|
|-5-5----------0-|-(0)-0-----------------|
|----------------|-----------------------|


  D            A
  Q   Q  E Q   E   +E  E E. S E E E S S
|----------------|----------------------|
|----------------|----------------------|
|----------------|----------------------|
|----------------|----------------5-5h7-|
|-5---3----------|-------4--4-5-7-------|
|--------5-3---5-|-(5)-5----------------|
|
| E e Q  Q   E E   +E  e Q    H
|----------------|----------------------|
|-7-7----------2-|-(2)-2----------------|
|-7-7----------2-|-(2)-2----------------|
|-7-7----------2-|-(2)-2----------------|
|-5-5----------0-|-(0)-0----------------|
|----------------|----------------------|


  D            A
  Q   Q  E Q   E   +E  E E. S E E E S S
|----------------|-----------------------||
|----------------|-----------------------||
|----------------|-----------------------||
|----------------|----------------5-5h7--||
|-5---3----------|-------4--4-5-7--------||
|--------5-3---5-|-(5)-5-----------------||
|
| E e Q  Q   E E   +E  e Q    H
|----------------|-----------------------||
|-7-7----------2-|-(2)-2-----------------||
|-7-7----------2-|-(2)-2-----------------||
|-7-7----------2-|-(2)-2-----------------||
|-5-5----------0-|-(0)-0-----------------||
|----------------|-----------------------||


 Chorus
  E                G
  Q  E E E E E E    Q.        E      +Q      Q
|----0---0-0-0-x-|----------------------------------|
|----0---0-0-0-x-|-12--------12-----(12)----12------|
|----1---1-1-1-x-|-14b16-----14b16==(14)r---14b16---|
|----2---2-2-2-x-|----------------------------------|
|----2---2-2-2-x-|----------------------------------|
|-0--0-0-0-0-0-x-|----------------------------------|
|
| Q  Q   E E E E    E    E Q          E   E  E    E
|-0--0---0-0-0-x-|--3----3-3----------3---3--3----x-|
|-0--0---0-0-0-x-|--0----0-0----------0---0--0----x-|
|-1--1---1-1-1-x-|--0----0-0----------0---0--0----x-|
|-2--2---2-2-2-x-|--0----0-0----------0---0--0----x-|
|-2--2---2-2-2-x-|--2----2-2----------2---2--2----x-|
|-0--0---0-0-0-x-|--3----3-3----------3---3--3----x-|


                               To Coda
  A5
  E E e E Q   E E   +E  E e E Q   e E
|---5-----5-----5-|-(5)---5---5---5----|
|---5-----5-----5-|-(5)---5---5---5----|
|-----7-------7---|-----7--------------|
|-----------------|--------------------|
|-----------------|--------------------|
|-----------------|--------------------|
|
| e E e E e E e E    e  E e E e E e E
|-----------------|--------------------|
|-----------------|--------------------|
|-2-------2-------|--2--------2--------|
|-2---4---2---4---|--2----4---2---4----|
|-0-0-0-0-0-0-0-0-|--0--0-0-0-0-0-0-0--|
|-----------------|--------------------|


  E                G                              N.C.
  Q  E E E E E E    Q.        E      +Q      Q
|----0---0-0-0-x-|----------------------------------|
|----0---0-0-0-x-|-12--------12-----(12)----12------|
|----1---1-1-1-x-|-14b16-----14b16==(14)r---14b16---|
|----2---2-2-2-x-|----------------------------------|
|----2---2-2-2-x-|----------------------------------|
|-0--0-0-0-0-0-x-|----------------------------------|
|
| Q  Q   E E E E    E    E Q          E   E  E    E
|-0--0---0-0-0-x-|--3----3-3----------3---3--3------|
|-0--0---0-0-0-x-|--0----0-0----------0---0--0------|
|-1--1---1-1-1-x-|--0----0-0----------0---0--0----4s|
|-2--2---2-2-2-x-|--0----0-0----------0---0--0------|
|-2--2---2-2-2-x-|--2----2-2----------2---2--2------|
|-0--0---0-0-0-x-|--3----3-3----------3---3--3------|


 1.
  E  Q       E  Q       E  E        +E    E  Q       Q    Q
|-----------12---------12--------|-------12---------12-----------||
|---12b14------12b14------12b14==|=(12)r----12b14--------10\----o||
|--------------------------------|-------------------------------||
|--------------------------------|-------------------------------||
|--------------------------------|------------------------------o||
|--------------------------------|-------------------------------||
|
| E  E    E  E  E    E  E  E         E    E  E    E  E E  E  E
|----5s===3-----0----------------|-------------------------------||
|-----------------------3--------|------------------------------o||
|-6-(6)s==4--x-------------------|--------2--2-------------------||
|--------------------4-----2h====|===4---------------------------||
|--------------------------------|----------------3p=2-0--------o||
|--------------------------------|------------------------3--0---||


  2.
   E  e      Q    Q.          E         +E   E  Q        E E E E
|----12----------12------------------|------12-12----------5-5-5-||
|----13b13.5-----13b13.5-----13b13.5-|-(13)----13b13.5-----5-5-5-||
|------------------------------------|---------------------------||
|------------------------------------|---------------------------||
|------------------------------------|---------------------------||
|------------------------------------|---------------------------||
|
|  E  E      E E  E      E E  E          E   E  E      E E E E E
|-----5s=====3----0------------------|---------------------------||
|--------------------------3---------|---------------------------||
|-/6-(6)s====4-x---------------------|-------2--2----------------||
|------------------------4----2h=====|===4-----------------------||
|------------------------------------|-----------------3p2-0-----||
|------------------------------------|-----------------------3-0-||


 Guitar Solo
  D                         A
  E   E   Q       Q       E E      +E   E Q       E Q       E
|--------------------------------|--------------------------------|
|-5---5---5-------5-------5-5----|-(5)--5-5-------5-5-------5-----|
|-7b9-----7b9-----7b9-------7b9==|=(7)r---7b9-------7b9-----------|
|--------------------------------|--------------------------------|
|--------------------------------|--------------------------------|
|--------------------------------|--------------------------------|
|
| E   S S E   S S E   S S E E      +E   E E   S S E S   S E S S
|--------------------------------|--------------------------------|
|-7---x-x-7---x-x-7---x-x-7-2----|-(2)--2-2---x-x-2-x---x-2-x-x---|
|-7---x-x-7---x-x-7---x-x-7-2----|-(2)--2-2---x-x-2-x---x-2-x-x---|
|-7---x-x-7---x-x-7---x-x-7-2----|-(2)--2-2---x-x-2-x---x-2-x-x---|
|-5---x-x-5---x-x-5---x-x-5-0----|-(0)--0-0---x-x-0-x---x-0-x-x---|
|--------------------------------|--------------------------------|


  D                            A
  Q       Q       Q       Q        +E   E Q        +E  Q       E
|--------------------------------|------5----------------------5---|
|-5-------5-------5-------5------|-(5)--5--------------5-------5---|
|-7b9-----7b9-----7b9-----7b9====|=(7)r---7pb9r====(7)-7b9---------|
|--------------------------------|---------------------------------|
|--------------------------------|---------------------------------|
|--------------------------------|---------------------------------|
|
| E   S S E   S S E   S S E    E   +E   E E    S S  E  S   S E S S
|--------------------------------|---------------------------------|
|-7---x-x-7---x-x-7---x-x-7----2-|-(2)--2-2----x-x--2--x---x-2-x-x-|
|-7---x-x-7---x-x-7---x-x-7----2-|-(2)--2-2----x-x--2--x---x-2-x-x-|
|-7---x-x-7---x-x-7---x-x-7----2-|-(2)--2-2----x-x--2--x---x-2-x-x-|
|-5---x-x-5---x-x-5---x-x-5----0-|-(0)--0-0----x-x--0--x---x-0-x-x-|
|--------------------------------|---------------------------------|


  D                       A
  Q       E E   E E   E   E    q    E E   E E   E   E
|---------5-8-----5-------5-|--8----5-----5-8---5---------|
|-5-------5-7-----5---5---5-|--7----5-7---5-7---5---------|
|-7b9-----------------7b9---|---------7-----------/11-----|
|---------------------------|-----------------------------|
|---------------------------|-----------------------------|
|---------------------------|-----------------------------|
|
| E   S S E S S E S S E   E   +E  E E S S E S S E   S S
|---------------------------|-----------------------------|
|-7---x-x-7-x-x-7-x-x-7---2-|-(2)-2-2-x-x-2-x-x-2---x-x---|
|-7---x-x-7-x-x-7-x-x-7---2-|-(2)-2-2-x-x-2-x-x-2---x-x---|
|-7---x-x-7-x-x-7-x-x-7---2-|-(2)-2-2-x-x-2-x-x-2---x-x---|
|-5---x-x-5-x-x-5-x-x-5---0-|-(0)-0-0-x-x-0-x-x-0---x-x---|
|---------------------------|-----------------------------|


  D                              A
                                  ~~~~~~~~~
   +E   E    Q         E  E    E  E    +Q     E  E     E  E    E  E
|-----------------------------------|---------------------------------|
|------10---12b14-----12-10------10-|-(10)---------------10---12-10---|
|-(11)------------------------11----|--------11\-----/11--------------|
|-----------------------------------|---------------------------------|
|-----------------------------------|---------------------------------|
|-----------------------------------|---------------------------------|
|
|   E   S S  E    S S  E  S S  E  E    +E  E  E  S S   E  S S  E  S S
|-----------------------------------|---------------------------------|
|---7---x-x--7----x-x--7--x-x--7--2-|--(2)-2--2--x-x---2--x-x--2--x-x-|
|---7---x-x--7----x-x--7--x-x--7--2-|--(2)-2--2--x-x---2--x-x--2--x-x-|
|---7---x-x--7----x-x--7--x-x--7--2-|--(2)-2--2--x-x---2--x-x--2--x-x-|
|---5---x-x--5----x-x--5--x-x--5--0-|--(0)-0--0--x-x---0--x-x--0--x-x-|
|-----------------------------------|---------------------------------|


  D                              A
   Q         Q         E  E    E  E    e    E  E  E    E  Q      a  E
|-----------------------------------|------------------------------------|
|-12b13-----12b13-----12-10------10-|-12b14---10------10-10--------------|
|-----------------------------11----|------------11-------------12s14----|
|-----------------------------------|------------------------------------|
|-----------------------------------|------------------------------------|
|-----------------------------------|------------------------------------|
|
|  E    S S  E    S S  E  S S  E  E   +E    E  E  S S  E  S S E     S S
|-----------------------------------|------------------------------------|
|--7----x-x--7----x-x--7--x-x--7--2-|-(2)---2--2--x-x--2--x-x-2-----x-x--|
|--7----x-x--7----x-x--7--x-x--7--2-|-(2)---2--2--x-x--2--x-x-2-----x-x--|
|--7----x-x--7----x-x--7--x-x--7--2-|-(2)---2--2--x-x--2--x-x-2-----x-x--|
|--5----x-x--5----x-x--5--x-x--5--0-|-(0)---0--0--x-x--0--x-x-0-----x-x--|
|-----------------------------------|------------------------------------|


  D                                A
   +E   E    Q         Q         E  E    +E   E Q     E  Q         E
|-------------------------------------|---------------------------15---|
|------13---15b17-----15b17-----13----|------13---------15b17----------|
|-(14)-----------------------------14-|-(14)---------------------------|
|-------------------------------------|--------------------------------|
|-------------------------------------|--------------------------------|
|-------------------------------------|--------------------------------|
|
|   E   S S  E    S S  E    S S  E  E    +E   E E S S E  S    S E  S S
|-------------------------------------|--------------------------------|
|---7---x-x--7----x-x--7----x-x--7--2-|--(2)--2-2-x-x-2--x----x-2--x-x-|
|---7---x-x--7----x-x--7----x-x--7--2-|--(2)--2-2-x-x-2--x----x-2--x-x-|
|---7---x-x--7----x-x--7----x-x--7--2-|--(2)--2-2-x-x-2--x----x-2--x-x-|
|---5---x-x--5----x-x--5----x-x--5--0-|--(0)--0-0-x-x-0--x----x-0--x-x-|
|-------------------------------------|--------------------------------|


  D                                  A
   Q         E  E        +E   E    E  +E     E   E  E  E      E  E    E  E
|-----------15---------------15-----------|------------------------------------|
|-15b17--------15b17====(15)------15r(15)-|-13-----13-15b17-----13------13-----|
|-----------------------------------------|-----14-------------------14--------|
|-----------------------------------------|------------------------------------|
|-----------------------------------------|------------------------------------|
|-----------------------------------------|------------------------------------|
|
|  E    S S  E  S     S   E   S S  E   E    +E   E  E  S    S E  S S  E  S S
|-----------------------------------------|------------------------------------|
|--7----x-x--7--x-----x---7---x-x--7---2--|-(2)--2--2--x----x-2--x-x--2--x-x---|
|--7----x-x--7--x-----x---7---x-x--7---2--|-(2)--2--2--x----x-2--x-x--2--x-x---|
|--7----x-x--7--x-----x---7---x-x--7---2--|-(2)--2--2--x----x-2--x-x--2--x-x---|
|--5----x-x--5--x-----x---5---x-x--5---0--|-(0)--0--0--x----x-0--x-x--0--x-x---|
|-----------------------------------------|------------------------------------|


  D                                A
   Q         Q         E     Q      E        +E    E  E     E    Q         E    E
|-12--------12--------12----12-----12-----|-(12)--12-12----12---12--------12--------||
|-15b17-----15b17-----15b17--------15b17==|=(15)r----15b17------15b17-----15b17-----||
|-----------------------------------------|-----------------------------------------||
|-----------------------------------------|-----------------------------------------||
|-----------------------------------------|-----------------------------------------||
|-----------------------------------------|-----------------------------------------||
|
|  E    S S  E    S S  E     S S E  E        +E    E  E     S S  E    S S  E    S S
|-----------------------------------------|-----------------------------------------||
|--7----x-x--7----x-x--7-----x-x-7--2-----|--(2)---2--2-----x-x--2----x-x--2----x-x-||
|--7----x-x--7----x-x--7-----x-x-7--2-----|--(2)---2--2-----x-x--2----x-x--2----x-x-||
|--7----x-x--7----x-x--7-----x-x-7--2-----|--(2)---2--2-----x-x--2----x-x--2----x-x-||
|--5----x-x--5----x-x--5-----x-x-5--0-----|--(0)---0--0-----x-x--0----x-x--0----x-x-||
|-----------------------------------------|-----------------------------------------||


 Chorus
  E                G
  Q  E E E E E E    Q.        E      +Q      Q
|----0---0-0-0-x-|------------------------------------|
|----0---0-0-0-x-|-12--------12-----(12)----12--------|
|----1---1-1-1-x-|-14b16-----14b16==(14)r---14b16-----|
|----2---2-2-2-x-|------------------------------------|
|----2---2-2-2-x-|------------------------------------|
|-0--0-0-0-0-0-x-|------------------------------------|
|
| Q  Q   E E E E    E    E Q          E   E  E    E
|-0--0---0-0-0-x-|--3----3-3----------3---3--3----x---|
|-0--0---0-0-0-x-|--0----0-0----------0---0--0----x---|
|-1--1---1-1-1-x-|--0----0-0----------0---0--0----x---|
|-2--2---2-2-2-x-|--0----0-0----------0---0--0----x---|
|-2--2---2-2-2-x-|--2----2-2----------2---2--2----x---|
|-0--0---0-0-0-x-|--3----3-3----------3---3--3----x---|


  A5                                    E
  E E e E Q   E E   +E  E e E Q   e E   Q  E E E E E E
|---5-----5-----5-|-(5)---5---5---5---|----0---0-0-0-x-|
|---5-----5-----5-|-(5)---5---5---5---|----0---0-0-0-x-|
|-----7-------7---|-----7-------------|----1---1-1-1-x-|
|-----------------|-------------------|----2---2-2-2-x-|
|-----------------|-------------------|----2---2-2-2-x-|
|-----------------|-------------------|-0--0-0-0-0-0-x-|
|
| e E e E e E e E    e  E e E e E e E   Q  Q   E E E E
|-----------------|-------------------|-0--0---0-0-0-x-|
|-----------------|-------------------|-0--0---0-0-0-x-|
|-2-------2-------|--2--------2-------|-1--1---1-1-1-x-|
|-2---4---2---4---|--2----4---2---4---|-2--2---2-2-2-x-|
|-0-0-0-0-0-0-0-0-|--0--0-0-0-0-0-0-0-|-2--2---2-2-2-x-|
|-----------------|-------------------|-0--0---0-0-0-x-|


  G                              N.C.
   Q.        E      +Q      Q
|----------------------------------|
|-12--------12-----(12)----12------|
|-14b16-----14b16==(14)r---14b16---|
|----------------------------------|
|----------------------------------|
|----------------------------------|
|
|  E    E Q          E   E  E    E
|--3----3-3----------3---3--3------|
|--0----0-0----------0---0--0------|
|--0----0-0----------0---0--0----4s|
|--0----0-0----------0---0--0------|
|--2----2-2----------2---2--2------|
|--3----3-3----------3---3--3------|


                                                   D.S. al Coda
  E  Q       E  Q       E  E        +E    E  Q       Q    Q
|-----------12---------12--------|-------12---------12----------||
|---12b14------12b14------12b14==|=(12)r----12b14--------10\----||
|--------------------------------|------------------------------||
|--------------------------------|------------------------------||
|--------------------------------|------------------------------||
|--------------------------------|------------------------------||
|
| E  E    E  E  E    E  E  E         E    E  E    E  E E  E  E
|----5s===3-----0----------------|------------------------------||
|-----------------------3--------|------------------------------||
|-6-(6)s==4--x-------------------|--------2--2------------------||
|--------------------4-----2h====|===4--------------------------||
|--------------------------------|----------------3p=2-0--------||
|--------------------------------|------------------------3--0--||


 Outro
  &
  E                G                      A7
  E E Q  E E E E    E  E  Q   E  E  E E   W           q    Q  H
|-0-0-0--0-0-0-x-|----------------------|-5--------|--5------------*|
|-0-0-0--0-0-0-x-|-12-12-12--12-12-12-x-|-5--------|--5------------*|
|-1-1-1--1-1-1-x-|-12-12-12--12-12-12-x-|-6--------|--6------------*|
|-2-2-2--2-2-2-x-|-12-12-12--12-12-12-x-|-5--------|--5------------*|
|-2-2-2--2-2-2-x-|-10-10-10--10-10-10-x-|----------|---------------*|
|-0-0-0--0-0-0-x-|----------------------|----------|---------------*|
|
| Gtr II
| Q   Q  E E E E    E  E  Q   E  E  E E   W          +E  E Q  H
|-0---0--0-0-0-x-|--3--3--3---3--3--3-x-|----------|---------------*|
|-0---0--0-0-0-x-|--0--0--0---0--0--0-x-|----------|---------------*|
|-1---1--1-1-1-x-|--0--0--0---0--0--0-x-|-6--------|-(6)-----------*|
|-2---2--2-2-2-x-|--0--0--0---0--0--0-x-|-5--------|-(5)-----------*|
|-2---2--2-2-2-x-|--2--2--2---2--2--2-x-|-7--------|-(7)-----------*|
|-0---0--0-0-0-x-|--3--3--3---3--3--3-x-|-5--------|-(5)-----------*|


Duration Legend
---------------
W - whole; H - half; Q - quarter; E - 8th; S - 16th; T - 32nd; X - 64th; a - acciaccatura
+ - note tied to previous; . - note dotted; .. - note double dotted
Uncapitalized letters represent notes that are staccato (1/2 duration)
Irregular groupings are notated above the duration line
Duration letters will always appear directly above the note/fret number it represents the
duration for.  Duration letters with no fret number below them represent rests.  Multi-
bar rests are notated in the form Wxn, where n is the number of bars to rest for.  Low
melody durations appear below the staff

Tablature Legend
----------------
 h   - hammer-on
 p   - pull-off
 b   - bend
 pb  - pre-bend
 r   - bend release (if no number after the r, then release immediately)
 /\  - slide into or out of (from/to "nowhere")
 s   - legato slide
 S   - shift slide
  - natural harmonic
[n]  - artificial harmonic
n(n) - tapped harmonic
 ~   - vibrato
 tr  - trill
 T   - tap
 TP  - trem. picking
 PM  - palm muting
\n/  - tremolo bar dip; n = amount to dip
 \n  - tremolo bar down
 n/  - tremolo bar up
/n\  - tremolo bar inverted dip
 =   - hold bend; also acts as connecting device for hammers/pulls
 <>  - volume swell (louder/softer)
 x   - on rhythm slash represents muted slash
 o   - on rhythm slash represents single note slash

Misc Legend
-----------
 |  - bar
||  - double bar
||o - repeat start
o|| - repeat end
*|  - double bar (ending)
 :  - bar (freetime)
 $  - Segno
 &  - Coda
Tempo markers -  = BPM(8/16=s8/s16), where s8 = swing 8ths, s16 = swing 16ths
Добавлено: 28.08.2015
Другие материалы по этой песне:

Страница создана 25.06.2013
http://primanota.ru/rolling-stones/live-with-me-live-chords.htm
Привет, Гость.
Предлагаем пройти революционный курс по гитаре.
Подарок от PrimaNota.Ru, забирай!