PrimaNota.ru - самый крупный в мире бесплатный архив песенных текстов, аккордов, табулатур и нот


Rolling Stones - Time Is On My Side Live - таба, бас-таба, видео

Регистрация Запомнить меня
Войти через:  Facebook Google Twitter Vk Yandex Mail.ru

Rolling Stones - Time Is On My Side Live - таба, бас-таба, видео

Печатать
Просмотров: 165
Уроки эстрадного вокала в Санкт-Петербурге
TIME IS ON MY SIDE (Live)

As recorded by The Rolling Stones
(From the 1982 Album STILL LIFE)

Words and Music by Norman Meade

Transcribed by Slowhand


Gtr I (E A D G B E) - 'Keith Richards - Electric Guitar'
Gtr II (E A D G B E) - 'Ron Wood - Electric Guitar'


  Q=84
  F
 12/8
  Gtr I
  a E  E E E E E  E          E          E          E          E          E
|-----------------1--------------------------------0-------------------------------|
|----------1-----------------1--------------------------------1--------------------|
|--------2---2--------------------------2--------------------------------2---------|
|------3-------3-------------------------------------------------------------------|
|----------------------------------------------------------------------------------|
|-0h1------------------------------------------------------------------------------|
|
| Gtr II
|   H.            S     +S   S     +S   S     +S   S     +S   S     +S   S     +S
|----------------15b17-(15)-15b17-(15)-15b17-(15)-15b17-(15)-15b17-(15)-15b17-(15)-|
|----------------------------------------------------------------------------------|
|----------------------------------------------------------------------------------|
|----------------------------------------------------------------------------------|
|----------------------------------------------------------------------------------|
|----------------------------------------------------------------------------------|


  Bb                          C
  a  E           E E   E  E E E  a E E E  E        E
|----------------------------------------------------------|
|----------------------3------------------1--------1-------|
|------------------3-----------------0h2--2--------0-------|
|----------------3---------------0h2-----------------------|
|-0h=1--------------------1-2-3----------------------------|
|----------------------------------------------------------|
|
|    S      +S   Q    +E  Q   Q.       E  S     S  S     S
|---15pb17r(15)-13---(13)----------------------13-------13-|
|----------------------------------------16b18----16b18----|
|----------------------------------------------------------|
|----------------------------------------------------------|
|----------------------------------------------------------|
|----------------------------------------------------------|


 Intro
  F
   E    E E E E  E        E        E        E    E  E E
|-------------------------1----------------------0------|
|-----------1----------------------1----------------1---|
|---------2---2-----------------------------2---------2-|
|-------3--------3--------------------------------------|
|-------------------------------------------------------|
|--1----------------------------------------------------|
|
|  E    Q   Q    S     S  S     S  S     S  E    Q.
|-------------------------------------------------------|
|-16b18---------------13-------13-------13--------------|
|---------------15b17----15b17----15b17----15b17--------|
|-------------------------------------------------------|
|-------------------------------------------------------|
|-------------------------------------------------------|


  Bb             C
  a E  E E E E E E  E  E  Q             E
|-----------------------------------------||
|----------3--------------1---------------||
|--------3-------------0------------------||
|------3------------2-------------------2-||
|-0h1--------1-2-3------------------------||
|-----------------------------------------||
|
|   H.           E  E  E  S      +S   E E
|------------------------18pb20r(18)-16---||
|------------------16-16------------------||
|-----------------------------------------||
|-----------------------------------------||
|-----------------------------------------||
|-----------------------------------------||


   Chorus
    $
    F
    E E E E E E E E E E E E
||--------1-----1-----0-----|
||o-----1---1-----1-----1---|
||----2-------2-----2-----2-|
||--3-----------------------|
||o-------------------------|
||--------------------------|
|
|   W
||--------------------------|
||o-------------------------|
||--------------------------|
||--------------------------|
||o-------------------------|
||--------------------------|


  Bb          C                    F
   Q.   E E E E  E E E    E    E   E E E E E E E E E E E E
|--------------------------------|-------1-----1-----0-----|
|-^3----3-3--------1-1-----------|-----1---1-----1-----1---|
|-^3------5-3------0-2----0------|---2-------2-----2-----2-|
|-^3--------3----2-------------2-|-3-----------------------|
|-------------3------------------|-------------------------|
|--------------------------------|-------------------------|
|
|  H.         Q.     S. T S. T E   W
|--------------------------------|-------------------------|
|--------------------------------|-------------------------|
|--------------------------------|-------------------------|
|-------------------------3----3-|-------------------------|
|--------------------3--5----5---|-------------------------|
|--------------------------------|-------------------------|


                             1st - 3rd Verses
  Bb           C              Dm           C
  Q.   +E  E E Q.   +Q   E      H.      E   S S +E  +E  S S E
|--------------------------||-^10----------10s8-(8)-(8)-------|
|----------3-4-5----(5)----||-^10----------10s8-(8)-(8)-------|
|-3----(3)-3-4-5----(5)----||-^10-----------------------9s7s5-|
|-3----(3)-3-4-5----(5)----||-^12-----------------------------|
|-1----(1)-----------------||-^12-----------------------------|
|--------------------------||-^10-----------------------------|
|
| W                             H.      Q.           E  E   E
|--------------------------||---------------------------------|
|--------------------------||---------------------------------|
|--------------------------||-^-7-----------------------------|
|--------------------------||-^-7-------5---------------------|
|--------------------------||-^-5-------3------------3--3---4-|
|--------------------------||---------------------------------|


  Dm              G
  E    +Q   +Q.   Q   E E   E E
|-------------------------------|
|-------------------------------|
|-7pb9r(7)--(7)-------7-7---5---|
|---------------------7-7---5-5-|
|-------------------------------|
|-------------------------------|
|
| H.              Q.    S S Q
|---------------------------7---|
|-------------------------------|
|-----------------------5s7-----|
|-------------------------------|
|-5-----------------------------|
|-------------------------------|


  C            Bb
  Q.     +Q.   Q.    +E  E E
|----------------------------|
|----------------------------|
|-5------(5)---3-----(3)-3-3-|
|-5------(5)---3-----(3)-3-3-|
|-3------(3)---1-----(1)-1-1-|
|----------------------------|
|
| S S Q   Q.   E  Q   Q    E
|-----8--------6------6----7-|
|--------------6------6----7-|
|-7s9----------7------7----8-|
|----------------------------|
|----------------------------|
|----------------------------|


  C            Bb              C            Bb
  Q.     +Q.   Q.    +E  E E   Q.     +Q.   Q.    +E  E E
|----------------------------|----------------------------|
|----------------------------|----------------------------|
|-5------(5)---3-----(3)-3-3-|-5------(5)---3-----(3)-3-3-|
|-5------(5)---3-----(3)-3-3-|-5------(5)---3-----(3)-3-3-|
|-3------(3)---1-----(1)-1-1-|-3------(3)---1-----(1)-1-1-|
|----------------------------|----------------------------|
|
| S S Q   Q.   E  Q   Q    E   S S Q   Q.   E  Q   Q    E
|-----8--------6------6----7-|-----8--------6------6----7-|
|--------------6------6----7-|--------------6------6----7-|
|-7s9----------7------7----8-|-7s9----------7------7----8-|
|----------------------------|----------------------------|
|----------------------------|----------------------------|
|----------------------------|----------------------------|


                                        Guitar Solo
                              To Coda
                                         Bb
                                          |----4----|
  E   E E E     E E  Q.         Q.        S   S  S  S  Q.     Q.     Q    Q
|-------------------------------------||------------------------------------------|
|------------------------------------o||------------------------------------------|
|-5---5-5-5-----5-5--5----------------||-----13----13-13-----------------15b17====|
|-5---5-5-5-----5-5--5----------------||-15-----15--------------------------------|
|-3---3-3-3-----3-3--3---------------o||------------------------------------------|
|-------------------------------x\----||------------------------------------------|
|
| S S Q   S  S  Q    S  S  Q   +Q.        Q.              E E E  Q.    E  E     E
|-----8--------10---------12--(12)----||------------------------------------------|
|------------------------------------o||------------------------------------------|
|-7s9-----9s10------10s12-------------||------------------3------3-----3--3-----3-|
|-------------------------------------||--------------------3---------------------|
|------------------------------------o||--1-------------------1-------------------|
|-------------------------------------||------------------------------------------|


  F
   +E.  +S   E  E     E  E     E     E  E  S   S    S  S  E
|---------------------------------------------------------------|
|---------------------------------------------------------------|
|-(15)r(15)p13-15----13-15b17-13--------------13----------------|
|-----------------------------------15-13-15-------15-15-15-----|
|---------------------------------------------------------------|
|---------------------------------------------------------------|
|
|   Q.          S. T  Q        S. T  Q     S.    T  E     S. T
|---------------------------------------------------------------|
|---------------------------------------------------------------|
|---2-----------------------------------------------------------|
|---3-----------------1--------------3--------------1-----1-----|
|---------------1--3-----------1--3--------1-----3-----------3--|
|---------------------------------------------------------------|


  Bb                           F
   E  Q  Q  S S +E. S E Q.      S   S  S  S  E     +Q.     Q.    E   E  S  S
|-------------------6--------|-----13----------------------------------------|
|----------------------------|-13-----16-13-16b18-(16)-----------------------|
|-13----------5-(5)----------|--------------------------------------15-13-15-|
|----------------------------|-----------------------------------------------|
|----------------------------|-----------------------------------------------|
|----------------------------|-----------------------------------------------|
|
|  H.           +Q.     Q  E    Q.                  S.T Q  Q.   +E   E  E
|----------------------------|-----------------------------------------------|
|--3------------(3)-----3s=1-|--------------------------4------------4-------|
|--3------------(3)-----3s=1-|--2-------------------3h5----5----(5)-----5----|
|--3------------(3)-----3s=1-|--3--------------------------------------------|
|----------------------------|--3--------------------------------------------|
|----------------------------|-----------------------------------------------|


  Bb
   S   S     S  E  +H.               E  S  S  S E
|--------------------------------------------------|
|--------------------------------------------------|
|-13--15b17----------------------------13-15-13----|
|-----------15-15-(15)-----------------------------|
|--------------------------------------------------|
|--------------------------------------------------|
|
|  Q.                    E  Q   +H.
|--------------------------10--(10)----------------|
|--3-----------------------------------------------|
|--3-------------------/10-------------------------|
|--3-----------------------------------------------|
|--------------------------------------------------|
|--------------------------------------------------|


  Dm
         PM
                 |------4-------|
   S   S S  E.  +S   S  S      +S   +Q.      Q      E  S S
|-10----------------10-------------------------------------|
|-----13---------------13b15==(13)-(13)r---------------1-1s|
|--------0-12--(12)------------------------------------2-2s|
|----------------------------------------------------------|
|----------------------------------------------------------|
|---------------------------------------------------x------|
|
|  Q.            Q                   E   Q.    S S +Q
|----------------------------------------------------------|
|-^6-------------------------------------------------------|
|-^7-------------7-------------------7---5-----------------|
|-^7-------------------------------------------5s7-(7)-----|
|----------------------------------------------------------|
|----------------------------------------------------------|


                                                                   D.S. al Coda
  G                                        C
  S  S S S S S E a E E E S S S S E a E E   E  E  E E E  E  +E   E E  Q       E
|----------------------------------------|---------------------------------------||
|-3----6-6-6-6-5---3-----6-6-6-6-5---3---|---11-10-8---11-(11)-10-8--------------||
|-4----7-7-7-7-5-3h4-----7-7-7-7-5-3h4---|---12-10-9---12-(12)-10-9--------------||
|--------------------5-----------------5-|--------------------------10-----------||
|----------------------------------------|---------------------------------------||
|----------------------------------------|---------------------------------------||
|
| W.                                       E  E  E E E  E   E   E E  S S S S E
|----------------------------------------|---------------------------------------||
|----------------------------------------|---------------------------------------||
|----------------------------------------|-5--5----5-5------5---5----------------||
|-5--------------------------------------|-5--5----5-5------5---5------------3---||
|----------------------------------------|-3--3----3-3------3---3----3h5-3h5-----||
|----------------------------------------|---------------------------------------||


   Outro
                         1.,2.
    &
    F                     Bb
    Q  E Q  E Q  E Q.     H.          E  a E E E    E    E  3x
||----------------------|-----------------------------------||
||o---------------------|-3------------------1-1----1------o||
||----------------------|-3------------------0-2----0-------||
||--3----3----3---------|-3--------------0h2-------------2--||
||o-3----3----3---------|-1--------------------------------o||
||--1----1----1---------|-----------------------------------||
|
|   Q  E Q  E Q  E Q.     E  E E Q.   Q.       S. T S. T E  3x
||----------------------|-----------------------------------||
||o---------------------|--------3-------------------------o||
||--2----2----2---------|------3----------------------------||
||--3----3----3---------|----3----------------------3----3--||
||o-3----3----3---------|-1--------------------3--5----5---o||
||----------------------|-----------------------------------||


  3.
  Bb                           F
  H.          E  E E E E E      Q   Q     Q  H.
|--------------------------|-----------------0-----*|
|-3------------------------|--------------1--------*|
|-3------------------------|--------2--------------*|
|-3-----------5--5-5-5-5-5-|----3------------------*|
|-1-----------3--3-3-3-3-3-|-----------------------*|
|--------------------------|-----------------------*|
|
| E  E E Q  E H.             a  Q.    a E Q  H.
|--------------------------|---^1------------5-----*|
|--------3s=4--------------|---^1---------0--------*|
|------3-------------------|-0h^2-----4s5----------*|
|----3---------------------|---^3------------------*|
|-1------------------------|---^3------------------*|
|--------------------------|-----------------------*|


Duration Legend
---------------
W - whole; H - half; Q - quarter; E - 8th; S - 16th; T - 32nd; X - 64th; a - acciaccatura
+ - note tied to previous; . - note dotted; .. - note double dotted
Uncapitalized letters represent notes that are staccato (1/2 duration)
Irregular groupings are notated above the duration line
Duration letters will always appear directly above the note/fret number it represents the
duration for.  Duration letters with no fret number below them represent rests.  Multi-
bar rests are notated in the form Wxn, where n is the number of bars to rest for.  Low
melody durations appear below the staff

Tablature Legend
----------------
 h   - hammer-on
 p   - pull-off
 b   - bend
 pb  - pre-bend
 r   - bend release (if no number after the r, then release immediately)
 /\  - slide into or out of (from/to "nowhere")
 s   - legato slide
 S   - shift slide
  - natural harmonic
[n]  - artificial harmonic
n(n) - tapped harmonic
 ~   - vibrato
 tr  - trill
 T   - tap
 TP  - trem. picking
 PM  - palm muting
\n/  - tremolo bar dip; n = amount to dip
 \n  - tremolo bar down
 n/  - tremolo bar up
/n\  - tremolo bar inverted dip
 =   - hold bend; also acts as connecting device for hammers/pulls
 <>  - volume swell (louder/softer)
 x   - on rhythm slash represents muted slash
 o   - on rhythm slash represents single note slash

Misc Legend
-----------
 |  - bar
||  - double bar
||o - repeat start
o|| - repeat end
*|  - double bar (ending)
 :  - bar (freetime)
 $  - Segno
 &  - Coda
Tempo markers -  = BPM(8/16=s8/s16), where s8 = swing 8ths, s16 = swing 16ths
Добавлено: 28.08.2015
Другие материалы по этой песне:

Страница создана 05.12.2013
http://primanota.ru/rolling-stones/time-is-on-my-side-live-chords.htm
Привет, Гость.
Предлагаем пройти революционный курс по гитаре.
Подарок от PrimaNota.Ru, забирай!