PrimaNota.ru - самый крупный в мире бесплатный архив песенных текстов, аккордов, табулатур и нот


Rolling Stones - Stray Cat Blues Live - таба, бас-таба, видео

Регистрация Запомнить меня
Войти через:  Facebook Google Twitter Vk Yandex Mail.ru

Rolling Stones - Stray Cat Blues Live - таба, бас-таба, видео

Печатать
Просмотров: 131
Уроки эстрадного вокала в Санкт-Петербурге
STRAY CAT BLUES (Live)

As recorded by The Rolling Stones
(From the 1970 Album GET YER YA YA'S OUT! THE ROLLING STONES IN CONCERT)

Words and Music by Mick Jagger & Keith Richards

Transcribed by Slowhand


Gtr I (E A D G B E) - 'Mick Taylor - Electric Guitar'
Gtr II (E A D G B E) - 'Keith Richards - Electric Guitar'


 Intro
  Q=82
  D         C             G            F       D        C
 4/4
  Gtr I
  E E S S E E S S S S E   E E E. S E E S S E   Q  S S E S S S S S S E
|-----0h2---------------|-----3--3-3-3-1-1-1-|-2--0h2------------------|
|-----3---3-------1-----|-----0--0-0-0-1-1-1-|-3--3---3---------1-1----|
|---2---------0---0h2-0-|---0------0-0-2-2-2-|-2------2-----0-0-0h2-0--|
|-0-----------0h2-------|----------0-0-3-3-3-|-0------------0h2--------|
|-----------3-----------|----------2-2-3-3-3-|----------3-3------------|
|-----------------------|-3--------3-3-1-1-1-|-------------------------|
|
| Gtr II
| W                       W                    H        H
|-----------------------|--------------------|-------------------------|
|-----------------------|--------------------|-3--------1--------------|
|-----------------------|--------------------|-2--------0--------------|
|-----------------------|--------------------|-0--------2--------------|
|-----------------------|--------------------|----------3--------------|
|-----------------------|--------------------|-------------------------|


                        1st Verse
  G             F        D              C
  E  E E. S E E S S E     Q.        S S  S  S  E  S  S E
|------3--3-3-3-1-1-1-||------------0h2------------------|
|------0--0-0-0-1-1-1-||------------3------------------1-|
|----0------0-0-2-2-2-||--2--------------------0-----0-0-|
|-----------0-0-3-3-3-||--------------------2--------2---|
|-----------2-2-3-3-3-||-----------------3--------3------|
|-3---------3-3-1-1-1-||---------------------------------|
|
| H.            Q         E   E  E  S S  S  S  E  S  S E
|---------------------||-10--10-10-10-x--8--8--8--8--8-x-|
|---------------------||-10--10-10-10-x--8--8--8--8--8-x-|
|-0-------------------||-11--11-11-11-x--9--9--9--9--9-x-|
|-0-------------------||-12--12-12-12-x-10-10-10-10-10-x-|
|-2-------------------||-12--12-12-12-x-10-10-10-10-10-x-|
|-3-------------------||-10--10-10-10-x--8--8--8--8--8-x-|


  G                F
  E E E.   S E   E S S E
|-----3----3-3---3-1-1-1-|
|-----0----0-0---0-1-1-1-|
|---0--------0---0-2-2-2-|
|------------0---0-3-3-3-|
|------------2---2-3-3-3-|
|-3----------3---3-1-1-1-|
|
| E E E  S S S S E S S E
|-3-3-3--3-3-3-3-3-1-1-1-|
|-3-3-3--3-3-3-3-3-1-1-1-|
|-4-4-4--4-4-4-4-4-2-2-2-|
|-5-5-5--5-5-5-5-5-3-3-3-|
|-5-5-5--5-5-5-5-5-3-3-3-|
|-3-3-3--3-3-3-3-3-1-1-1-|


  D              C                  G                F
   Q.        S S  E     E  S  S E   E E E.   S E   E S S E
|--2---------0h2------------------|-----3----3-3---3-1-1-1-|
|--3---------3-------------1--1-1-|-----0----0-0---0-1-1-1-|
|--2--------------------0--0h=2p0-|---0--------0---0-2-2-2-|
|--0--------------------2---------|------------0---0-3-3-3-|
|-----------------3---------------|------------2---2-3-3-3-|
|---------------------------------|-3----------3---3-1-1-1-|
|
|  E   E  E  S S  S  S  E  S  S E   E E E  S S S S E S S E
|-10--10-10-10-x--8--8--8--8--8-x-|-3-3-3--3-3-3-3-3-1-1-1-|
|-10--10-10-10-x--8--8--8--8--8-x-|-3-3-3--3-3-3-3-3-1-1-1-|
|-11--11-11-11-x--9--9--9--9--9-x-|-4-4-4--4-4-4-4-4-2-2-2-|
|-12--12-12-12-x-10-10-10-10-10-x-|-5-5-5--5-5-5-5-5-3-3-3-|
|-12--12-12-12-x-10-10-10-10-10-x-|-5-5-5--5-5-5-5-5-3-3-3-|
|-10--10-10-10-x--8--8--8--8--8-x-|-3-3-3--3-3-3-3-3-1-1-1-|


  D               C
   Q.        S  S  S  S  E  S S  E
|--2---------0h=2---------------------|
|--3---------3--------------1----1----|
|--2---------------------0--0h2p=0----|
|--0---------------------2------------|
|------------------3--3---------------|
|-------------------------------------|
|
|  E   E  E  S  S  S  S  E  E    S  S
|-10--10-10-10-10--8--8--8--8----8--8-|
|-10--10-10-10-10--8--8--8--8----8--8-|
|-11--11-11-11-11--9--9--9--9----9--9-|
|-12--12-12-12-12-10-10-10-10---10-10-|
|-12--12-12-12-12-10-10-10-10---10-10-|
|-10--10-10-10-10--8--8--8--8----8--8-|


  G                           A           D/A
  Q   Q     +E    E +Q        E E E S S E   E E E
|-----3-----(3)---3-(3)-----|-----------------------|
|-----3-----(3)---3-(3)-----|-----2-2-2-------3-3---|
|-----4-----(4)---4-(4)-----|-----2-2-2-------2-2---|
|-----5-----(5)---5-(5)-----|---2-2-2-2-----4-4-4---|
|---------------------------|-0---------0-----------|
|-3-------------------------|-----------------------|
|
| E E E S S  S  S E  S  S E   E E E S S S S E E S S
|-3-3-3-3-3--3--3-3--3--3-3-|-----------------------|
|-3-3-3-3-3--3--3-3--3--3-3-|-2-2-2-2-2-2-3-3-3-3-x-|
|-4-4-4-4-4--4--4-4--4--4-4-|-2-2-2-2-2-2-2-2-2-2-x-|
|-5-5-5-5-5--5--5-5--5--5-5-|-2-2-2-2-2-2-4-4-4-4-x-|
|-5-5-5-5-5--5--5-5--5--5-5-|-0-0-0-0-0-0-0-0-0-0-x-|
|-3-3-3-3-3--3--3-3--3--3-3-|-----------------------|


  A               D/A     A           D/A
  E E E S S E   E E E     E E E S S E   E E E
|-----------------------|--------------------------|
|-----2-2-2-------3-3---|-----2-2-2-------3-3------|
|-----2-2-2-------2-2---|-----2-2-2-------2-2------|
|---2-2-2-2-----4-4-4---|---2-2-2-2-----4-4-4------|
|-0---------0-----------|-0---------0--------------|
|-----------------------|--------------------------|
|
| E E E S S S S E E S S   E E E S S S S E E S S
|-----------------------|--------------------------|
|-2-2-2-2-2-2-3-3-3-3-x-|-2-2-2-2-2-2-3-3-3-3-x----|
|-2-2-2-2-2-2-2-2-2-2-x-|-2-2-2-2-2-2-2-2-2-2-x----|
|-2-2-2-2-2-2-4-4-4-4-x-|-2-2-2-2-2-2-4-4-4-4-x----|
|-0-0-0-0-0-0-0-0-0-0-x-|-0-0-0-0-0-0-0-0-0-0-x----|
|-----------------------|--------------------------|


                            2nd & 4th Verses
                          $
  A           D/A            D              C
  E E E S S E   E S S E       Q.        E    S  S  E  S  S E
|-------------------------||--2---------2--------------------|
|-----2-2-2-----3-3-3-3---||--3---------3-------------1--1-1-|
|-----2-2-2-----2-2-2-2---||--2---------2-------------0h=2p0-|
|---2-2-2-2-----4-4-4-4---||--0---------0--------------------|
|-0---------0-------------||-----------------3--3--3---------|
|-------------------------||---------------------------------|
|
| E E E S S S S E E   S S     E   E  E  S S  S  S  E  S  S E
|-------------------------||--------10-10-x--8--8--8--8--8-x-|
|-2-2-2-2-2-2-3-3-3---3-x-||--------10-10-x--8--8--8--8--8-x-|
|-2-2-2-2-2-2-2-2-2---2-x-||--------11-11-x--9--9--9--9--9-x-|
|-2-2-2-2-2-2-4-4-4---4-x-||--------12-12-x-10-10-10-10-10-x-|
|-0-0-0-0-0-0-0-0-0---0-x-||--------12-12-x-10-10-10-10-10-x-|
|-------------------------||-10--10-10-10-x--8--8--8--8--8-x-|


  G                F
  E E E.   S E   E E   S S
|-----3----3-----3-1---1-1--|
|-----0----0-----3-1---1-1--|
|---0------------4-2---2-2--|
|----------------5-3---3-3--|
|---------------------------|
|-3-------------------------|
|
| E E E  S S S S E S S E
|-3-3-3--3-3-3-3-3-1-1-1----|
|-3-3-3--3-3-3-3-3-1-1-1----|
|-4-4-4--4-4-4-4-4-2-2-2----|
|-5-5-5--5-5-5-5-5-3-3-3----|
|-5-5-5--5-5-5-5-5-3-3-3----|
|-3-3-3--3-3-3-3-3-1-1-1----|


  D              C                  G                 F
   Q.        S S  S  S  E  S  S E   Q   Q     +E    E S S E
|--2---------0h2------------------|-----3-----(3)---3-1-1-1-|
|--3---------3-------------1----1-|-----3-----(3)---3-1-1-1-|
|--2-----------------0--0--0h=2p0-|-----4-----(4)---4-2-2-2-|
|--0-----------------2--2---------|-----5-----(5)---5-3-3-3-|
|-----------------3---------------|-------------------------|
|---------------------------------|-3-----------------------|
|
|  E   E  E  S S  S  S  E  S  S E   E E E S S  S  S E S S E
|-10--10-10-10-x--8--8--8--8--8-x-|-3-3-3-3-3--3--3-3-1-1-1-|
|-10--10-10-10-x--8--8--8--8--8-x-|-3-3-3-3-3--3--3-3-1-1-1-|
|-11--11-11-11-x--9--9--9--9--9-x-|-4-4-4-4-4--4--4-4-2-2-2-|
|-12--12-12-12-x-10-10-10-10-10-x-|-5-5-5-5-5--5--5-5-3-3-3-|
|-12--12-12-12-x-10-10-10-10-10-x-|-5-5-5-5-5--5--5-5-3-3-3-|
|-10--10-10-10-x--8--8--8--8--8-x-|-3-3-3-3-3--3--3-3-1-1-1-|


  D              C
   Q.        E    S  S  E  S  S E
|--2---------2---------------------|
|--3---------3-------------1--1-1--|
|--2---------2-------0--0--0h=2p0--|
|--0---------0-------2--2----------|
|-----------------3----------------|
|----------------------------------|
|
|  E   E  E  S S  S  S  E  S  S E
|-10--10-10-10-x--8--8--8--8--8-x--|
|-10--10-10-10-x--8--8--8--8--8-x--|
|-11--11-11-11-x--9--9--9--9--9-x--|
|-12--12-12-12-x-10-10-10-10-10-x--|
|-12--12-12-12-x-10-10-10-10-10-x--|
|-10--10-10-10-x--8--8--8--8--8-x--|


  G                     A                 D/A
  E Q   E   E   E Q     E   E   E S S E   E   S S E
|-------3---3---3-3---|-------------------------------|
|-------3---3---3-3---|-2---2---2-2-2-2---3---3-3-3---|
|-------4---4---4-4---|-2---2---2-2-2-2---2---2-2-2---|
|-------5---5---5-5---|-2---2---2-2-2-2---4---4-4-4---|
|---------------------|-0---0---0-0-0-0---0---0-0-0---|
|-3-3-----------------|-------------------------------|
|
| E E E S S S S E E E   S S S S E S S S S S S E   S S
|-3-3-3-3-3-3-3-3-3-3-|-------------------------------|
|-3-3-3-3-3-3-3-3-3-3-|-------------------------------|
|-4-4-4-4-4-4-4-4-4-4-|-------------------------------|
|-5-5-5-5-5-5-5-5-5-5-|-5-7-7-7-7-7-7-5-7-7-7-7---7-7-|
|-5-5-5-5-5-5-5-5-5-5-|-0-------0-----0-------0-------|
|-3-3-3-3-3-3-3-3-3-3-|-------------------------------|


  A                 D/A
  E   E   E S S E   E     S S E
|--------------------------------|
|-2---2---2-2-2-2---3-----3-3-3--|
|-2---2---2-2-2-2---2-----2-2-2--|
|-2---2---2-2-2-2---4-----4-4-4--|
|-0---0---0-0-0-0---0-----0-0-0--|
|--------------------------------|
|
| S S S S E S S S S T T S S S E
|--------------------------------|
|--------------------------------|
|--------------------------------|
|-5-7-7-7-7-7-7-7-5--------------|
|-0-------0---------7s5-3-5-3----|
|-----------------------------5--|


  A                 D/A           A                     D/A
  E   E   E S S E   E   S S E     E   E   E     S S E   E S  S E
|-------------------------------|----------------------------------||
|-2---2---2-2-2-2---3---3-3-3---|-2---2---2-----2-2-2---3-3--3-3---||
|-2---2---2-2-2-2---2---2-2-2---|-2---2---2-----2-2-2---2-2--2-2---||
|-2---2---2-2-2-2---4---4-4-4---|-2---2---2-----2-2-2---4-4--4-4---||
|-0---0---0-0-0-0---0---0-0-0---|-0---0---0-----0-0-0---0-0--0-0---||
|-------------------------------|----------------------------------||
|
|                                                         ~~
| S S S S E S S S S S S E   S S   S S S S T T S S S S S E E.     S
|-------------------------------|----------------------------------||
|-------------------------------|---8------------------------------||
|-------------------------------|---9-7-5-7p5---7-5----------------||
|-5-7-7-7-7-7-7-5-7-7-7-7---7-7-|-------------7-----7-5-7-7------7-||
|-0-------0-----0-------0-------|-0--------------------------------||
|-------------------------------|----------------------------------||


 Chorus
    C
     E  E  E      S  S  S  S   E     S  S  E
|----8--8--8------8--8--8--8---8-----8--8--8-------|
|----8--8--8------8--8--8--8---8-----8--8--8-------|
|----9--9--9------9--9--9--9---9-----9--9--9-------|
|---10-10-10-----10-10-10-10--10----10-10-10-------|
|---10-10-10-----10-10-10-10--10----10-10-10-------|
|----8--8--8------8--8--8--8---8-----8--8--8-------|
|
| a  E  E  Q            S  S  +S  S  S  S  S  S
|-------8--------------11------------8-------------|
|---------11b13===========11r(11)-8----11p=8-------|
|-7s=9---------------------------------------10----|
|--------------------------------------------------|
|--------------------------------------------------|
|--------------------------------------------------|


    E     E     E          S     S  S  S   E  S   S  E
|---8-----8-----8----------8-----8--8--8---8--8---8--8---|
|---8-----8-----8----------8-----8--8--8---8--8---8--8---|
|---9-----9-----9----------9-----9--9--9---9--9---9--9---|
|--10----10----10---------10----10-10-10--10-10--10-10---|
|--10----10----10---------10----10-10-10--10-10--10-10---|
|---8-----8-----8----------8-----8--8--8---8--8---8--8---|
|
|  +S  S  S  S  S  S      +T  T  S  S  E.     E.       S
|---------8----------------------------------------------|
|------8----11--8----------------------------------------|
|-(10)------------10pb12r(10)p8-----8--------------------|
|-------------------------------10----10-----10--------x-|
|--------------------------------------------------------|
|--------------------------------------------------------|


    G
    E E   E   S   S  S  S E     S S E         E      E E    S  S S S   E       S    S E
|---3-3---3---3---3--3--3-3-----3-3-3-------|-3------3-3----3--3-3-3---3-------3----3-3----|
|---3-3---3---3---3--3--3-3-----3-3-3-------|-3------3-3----3--3-3-3---3-------3----3-3----|
|---4-4---4---4---4--4--4-4-----4-4-4-------|-4------4-4----4--4-4-4---4-------4----4-4----|
|---5-5---5---5---5--5--5-5-----5-5-5-------|-5------5-5----5--5-5-5---5-------5----5-5----|
|---5-5---5---5---5--5--5-5-----5-5-5-------|-5------5-5----5--5-5-5---5-------5----5-5----|
|---3-3---3---3---3--3--3-3-----3-3-3-------|-3------3-3----3--3-3-3---3-------3----3-3----|
|
| a E S S S S S a S +S  S T T S S S S   +S    S E.     S S +S  S S T T S S    +T  T S S S
|-------------------------------------------|-3--------6---------3-3-----------------------|
|-----6---6-8-6-----------------------------|---6b8======6r(6)-3-----6p3-------------------|
|-5s7---7-------7s5-(5)-3-5p3---5-3-5b7-(5)-|----------------------------5pb7r(5)p3---3-x--|
|-----------------------------5-------------|---------------------------------------5------|
|-------------------------------------------|----------------------------------------------|
|-------------------------------------------|----------------------------------------------|


    D                             C        D
     E  E  E    S  S  +S   S  E    E        E
|---10-10-10---10-10-(10)-10-10----8-------10-----|
|---10-10-10---10-10-(10)-10-10----8-------10-----|
|---11-11-11---11-11-(11)-11-11----9-------11-----|
|---12-12-12---12-12-(12)-12-12---10-------12-----|
|---12-12-12---12-12-(12)-12-12---10-------12-----|
|---10-10-10---10-10-(10)-10-10----8-------10-----|
|
| a  E  E  S E     S   E      S S +S  E       +S
|------10----8---------5--------3-(3)-------------|
|-------------------------------------6pb8r===(6)-|
|-9s11-----9-------5----------4-------------------|
|-------------------------------------------------|
|-------------------------------------------------|
|-------------------------------------------------|


                                           C  D    A                   D/A
  E    E       E      S  S     +S   S  E    E  E   E   E   E   S S E   E   S S E
|-----10------10-----10-10----(10)-10-10----8-10-|------------------------------------|
|-----10------10-----10-10----(10)-10-10----8-10-|-2---2---2---2-2-2---3---3-3-3------|
|-----11------11-----11-11----(11)-11-11----9-11-|-2---2---2---2-2-2---2---2-2-2------|
|-----12------12-----12-12----(12)-12-12---10-12-|-2---2---2---2-2-2---4---4-4-4------|
|-----12------12-----12-12----(12)-12-12---10-12-|-0---0---0---0-0-0---0---0-0-0------|
|-----10------10-----10-10----(10)-10-10----8-10-|------------------------------------|
|
|                                           ~~
| S S  S S    +S   S  S  S     +E      S S  Q      S S S S S S S S S S S S S S S S
|------------------7--5--------------------------|------------------------------------|
|-3----3-5b7==(5)r-------5pb7r=(5)p====3----3----|------------------------------------|
|---5------------------------------------4-------|-0h2---2---2---2-0h2---2---2---2----|
|------------------------------------------------|------------------------------------|
|------------------------------------------------|-----0---0---0-------0---0---0------|
|------------------------------------------------|------------------------------------|


                                       To Coda
  A                     D/A
  E   E   E   S S E     E         S   S E
|----------------------------------------------|
|-2---2---2---2-2-2-----3---------3---3-3------|
|-2---2---2---2-2-2-----2---------2---2-2------|
|-2---2---2---2-2-2-----4---------4---4-4------|
|-0---0---0---0-0-0-----0---------0---0-0------|
|----------------------------------------------|
|
| S S S S S S S S E     S S      +S   S E
|----------------------------------------------|
|----------------------------------------------|
|-0h2---2---2---2-------2-------------2--------|
|----------------------------------------------|
|-----0---0---0---3b3.5---3b3.5==(3)r---3b3.5--|
|----------------------------------------------|


  A                D/A              A
  E   E   E  S S E E    S S E       E     E   E   S S E   E     E   E
|---------------------------------|------------------------------------||
|-2---2---2--2-2-2-3----3-3-3-----|-2-----2---2---2-2-2---2-----2---2--||
|-2---2---2--2-2-2-2----2-2-2-----|-2-----2---2---2-2-2---2-----2---2--||
|-2---2---2--2-2-2-4----4-4-4-----|-2-----2---2---2-2-2---2-----2---2--||
|-0---0---0--0-0-0-0----0-0-0-----|-0-----0---0---0-0-0---0-----0---0--||
|---------------------------------|------------------------------------||
|
|                ~
| S S S S E  E   E S S  S S T T S   T T S S S S S S S S S T T S S S E
|---------------------------------|------------------------------------||
|------------------8---10-8-------|------------------------------------||
|-0h2---2---/9---9---9------9s7p5-|-7p5---7-5--------------------------||
|-0h2---2-0-----------------------|-----7-----7-----5-7-5--------------||
|-----0---------------------------|-------------5h7-------7s5p3-5-3----||
|---------------------------------|---------------------------------5--||


 3rd Verse
  D             C                  G               F
   E  E  E  S S  S  S  E  S  S E   E E E S S S S E S S E
|-10-10-10-10-x--8--8--8--8--8-x-|-3-3-3-3-3-3-3-3-1-1-1-|
|-10-10-10-10-x--8--8--8--8--8-x-|-3-3-3-3-3-3-3-3-1-1-1-|
|-11-11-11-11-x--9--9--9--9--9-x-|-4-4-4-4-4-4-4-4-2-2-2-|
|-12-12-12-12-x-10-10-10-10-10-x-|-5-5-5-5-5-5-5-5-3-3-3-|
|-12-12-12-12-x-10-10-10-10-10-x-|-5-5-5-5-5-5-5-5-3-3-3-|
|-10-10-10-10-x--8--8--8--8--8-x-|-3-3-3-3-3-3-3-3-1-1-1-|
|
|  E  E  E  S S  S  S  E  S  S E   E E E S S S S E S S E
|-------10-10-x--8--8--8--8--8-x-|-3-3-3-3-3-3-3-3-1-1-1-|
|-------10-10-x--8--8--8--8--8-x-|-3-3-3-3-3-3-3-3-1-1-1-|
|-------11-11-x--9--9--9--9--9-x-|-4-4-4-4-4-4-4-4-2-2-2-|
|-------12-12-x-10-10-10-10-10-x-|-5-5-5-5-5-5-5-5-3-3-3-|
|-------12-12-x-10-10-10-10-10-x-|-5-5-5-5-5-5-5-5-3-3-3-|
|-10-10-10-10-x--8--8--8--8--8-x-|-3-3-3-3-3-3-3-3-1-1-1-|


  D             C                  G               F
   E  E  E  S S  S  S  E  S  S E   E E E S S S S E S S E
|-10-10-10-10-x--8--8--8--8--8-x-|-3-3-3-3-3-3-3-3-1-1-1----|
|-10-10-10-10-x--8--8--8--8--8-x-|-3-3-3-3-3-3-3-3-1-1-1----|
|-11-11-11-11-x--9--9--9--9--9-x-|-4-4-4-4-4-4-4-4-2-2-2----|
|-12-12-12-12-x-10-10-10-10-10-x-|-5-5-5-5-5-5-5-5-3-3-3----|
|-12-12-12-12-x-10-10-10-10-10-x-|-5-5-5-5-5-5-5-5-3-3-3----|
|-10-10-10-10-x--8--8--8--8--8-x-|-3-3-3-3-3-3-3-3-1-1-1----|
|
|  E  E  E  S S  S  S  E  S  S E   E E E S S S S E S S E
|-------10-10-x--8--8--8--8--8-x-|-3-3-3-3-3-3-3-3-1-1-1----|
|-------10-10-x--8--8--8--8--8-x-|-3-3-3-3-3-3-3-3-1-1-1----|
|-------11-11-x--9--9--9--9--9-x-|-4-4-4-4-4-4-4-4-2-2-2----|
|-------12-12-x-10-10-10-10-10-x-|-5-5-5-5-5-5-5-5-3-3-3----|
|-------12-12-x-10-10-10-10-10-x-|-5-5-5-5-5-5-5-5-3-3-3----|
|-10-10-10-10-x--8--8--8--8--8-x-|-3-3-3-3-3-3-3-3-1-1-1----|


  D             C
   E  E  E  S S  S  S  E  S  S E
|-10-10-10-10-x--8--8--8--8--8-x-|
|-10-10-10-10-x--8--8--8--8--8-x-|
|-11-11-11-11-x--9--9--9--9--9-x-|
|-12-12-12-12-x-10-10-10-10-10-x-|
|-12-12-12-12-x-10-10-10-10-10-x-|
|-10-10-10-10-x--8--8--8--8--8-x-|
|
|  E  E  E  S S  S  S  E  S  S E
|-------10-10-x--8--8--8--8--8-x-|
|-------10-10-x--8--8--8--8--8-x-|
|-------11-11-x--9--9--9--9--9-x-|
|-------12-12-x-10-10-10-10-10-x-|
|-------12-12-x-10-10-10-10-10-x-|
|-10-10-10-10-x--8--8--8--8--8-x-|


  G                                  A               D/A
   E  E  E  S  S  S  S  E  S  S  E   E   E   E S S S S E   E S S
|----------------------------------|-----------------------------|
|-12-12-12-12-12-12-12-12-12-12-12-|-2---2---2-2-2-2-3-3---3-3-3-|
|-12-12-12-12-12-12-12-12-12-12-12-|-2---2---2-2-2-2-2-2---2-2-2-|
|-12-12-12-12-12-12-12-12-12-12-12-|-2---2---2-2-2-2-4-4---4-4-4-|
|-10-10-10-10-10-10-10-10-10-10-10-|-0---0---0-0-0-0-0-0---0-0-0-|
|----------------------------------|-----------------------------|
|
|  E  E  E  S  S  S  S  E  S  S  E   S S S S E S S S S S S E S S
|--3--3--3--3--3--3--3--3--3--3--3-|-----------------------------|
|--3--3--3--3--3--3--3--3--3--3--3-|-----------------------------|
|--4--4--4--4--4--4--4--4--4--4--4-|-----------------------------|
|--5--5--5--5--5--5--5--5--5--5--5-|-5-7-7-7-7-7-7-5-7-7-7-7-7-7-|
|--5--5--5--5--5--5--5--5--5--5--5-|-0-------0-----0-------0-----|
|--3--3--3--3--3--3--3--3--3--3--3-|-----------------------------|


  A               D/A               A               D/A
  E   E   E S S S S E     E   S S   E   E   E S S S S E   E S S
|---------------------------------|-----------------------------|
|-2---2---2-2-2-2-3-3-----3---3-3-|-2---2---2-2-2-2-3-3---3-3-3-|
|-2---2---2-2-2-2-2-2-----2---2-2-|-2---2---2-2-2-2-2-2---2-2-2-|
|-2---2---2-2-2-2-4-4-----4---4-4-|-2---2---2-2-2-2-4-4---4-4-4-|
|-0---0---0-0-0-0-0-0-----0---0-0-|-0---0---0-0-0-0-0-0---0-0-0-|
|---------------------------------|-----------------------------|
|
| S S S S E S S S S T T S S S E     S S S S E S S S S S S E S S
|---------------------------------|-----------------------------|
|---------------------------------|-----------------------------|
|---------------------------------|-----------------------------|
|-5-7-7-7-7-7-7-7-5---------------|-5-7-7-7-7-7-7-5-7-7-7-7-7-7-|
|-0-------0---------7s5-3-5-3-----|-0-------0-----0-------0-----|
|-----------------------------5---|-----------------------------|


  A                     D/A
  E   E   E     S S E   E S  S E
|------------------------------------||
|-2---2---2-----2-2-2---3-3--3-3-----||
|-2---2---2-----2-2-2---2-2--2-2-----||
|-2---2---2-----2-2-2---4-4--4-4-----||
|-0---0---0-----0-0-0---0-0--0-0-----||
|------------------------------------||
|
|                         ~~
| S S S S T T S S S S S E E.     S
|------------------------------------||
|---8--------------------------------||
|---9-7-5-7p5---7-5------------------||
|-------------7-----7-5-7-7------7---||
|-0----------------------------------||
|------------------------------------||


 Chorus
    C
     E  E  E      S  S  S  S   E     S  S  E
|----8--8--8------8--8--8--8---8-----8--8--8----|
|----8--8--8------8--8--8--8---8-----8--8--8----|
|----9--9--9------9--9--9--9---9-----9--9--9----|
|---10-10-10-----10-10-10-10--10----10-10-10----|
|---10-10-10-----10-10-10-10--10----10-10-10----|
|----8--8--8------8--8--8--8---8-----8--8--8----|
|
| a  E  E  Q            S  S  +S  S  S  S  S  S
|-------8--------------11------------8----------|
|---------11b13===========11r(11)-8----11p=8----|
|-7s=9---------------------------------------10-|
|-----------------------------------------------|
|-----------------------------------------------|
|-----------------------------------------------|


                                                             G
    E     E     E          S     S  S  S   E  S   S  E       E E   E   S   S  S  S E     S S E
|---8-----8-----8----------8-----8--8--8---8--8---8--8---|---3-3---3---3---3--3--3-3-----3-3-3-------|
|---8-----8-----8----------8-----8--8--8---8--8---8--8---|---3-3---3---3---3--3--3-3-----3-3-3-------|
|---9-----9-----9----------9-----9--9--9---9--9---9--9---|---4-4---4---4---4--4--4-4-----4-4-4-------|
|--10----10----10---------10----10-10-10--10-10--10-10---|---5-5---5---5---5--5--5-5-----5-5-5-------|
|--10----10----10---------10----10-10-10--10-10--10-10---|---5-5---5---5---5--5--5-5-----5-5-5-------|
|---8-----8-----8----------8-----8--8--8---8--8---8--8---|---3-3---3---3---3--3--3-3-----3-3-3-------|
|
|  +S  S  S  S  S  S      +T  T  S  S  E.     E.       S   a E S S S S S a S +S  S T T S S S S   +S
|---------8----------------------------------------------|-------------------------------------------|
|------8----11--8----------------------------------------|-----6---6-8-6-----------------------------|
|-(10)------------10pb12r(10)p8-----8--------------------|-5s7---7-------7s5-(5)-3-5p3---5-3-5b7-(5)-|
|-------------------------------10----10-----10--------x-|-----------------------------5-------------|
|--------------------------------------------------------|-------------------------------------------|
|--------------------------------------------------------|-------------------------------------------|


                                                  D                             C        D
  E      E E    S  S S S   E       S    S E        E  E  E    S  S  +S   S  E    E        E
|-3------3-3----3--3-3-3---3-------3----3-3---|---10-10-10---10-10-(10)-10-10----8-------10-----|
|-3------3-3----3--3-3-3---3-------3----3-3---|---10-10-10---10-10-(10)-10-10----8-------10-----|
|-4------4-4----4--4-4-4---4-------4----4-4---|---11-11-11---11-11-(11)-11-11----9-------11-----|
|-5------5-5----5--5-5-5---5-------5----5-5---|---12-12-12---12-12-(12)-12-12---10-------12-----|
|-5------5-5----5--5-5-5---5-------5----5-5---|---12-12-12---12-12-(12)-12-12---10-------12-----|
|-3------3-3----3--3-3-3---3-------3----3-3---|---10-10-10---10-10-(10)-10-10----8-------10-----|
|
| S E.     S S +S  S S T T S S    +T  T S S S   a  E  E  S E     S   E      S S +S  E       +S
|-3--------6---------3-3----------------------|------10----8---------5--------3-(3)-------------|
|---6b8======6r(6)-3-----6p3------------------|-------------------------------------6pb8r===(6)-|
|----------------------------5pb7r(5)p3---3-x-|-9s11-----9-------5----------4-------------------|
|---------------------------------------5-----|-------------------------------------------------|
|---------------------------------------------|-------------------------------------------------|
|---------------------------------------------|-------------------------------------------------|


                                            C  D
   E    E       E      S  S     +S   S  E    E  E
|-10---10------10-----10-10----(10)-10-10----8-10---|
|-10---10------10-----10-10----(10)-10-10----8-10---|
|-11---11------11-----11-11----(11)-11-11----9-11---|
|-12---12------12-----12-12----(12)-12-12---10-12---|
|-12---12------12-----12-12----(12)-12-12---10-12---|
|-10---10------10-----10-10----(10)-10-10----8-10---|
|
|                                            ~~
|  S S  S S    +S   S  S  S     +E      S S  Q
|-------------------7--5----------------------------|
|--3----3-5b7==(5)r-------5pb7r=(5)p====3----3------|
|----5------------------------------------4---------|
|---------------------------------------------------|
|---------------------------------------------------|
|---------------------------------------------------|


  A                   D/A           A                     D/A
  E   E   E   S S E   E   S S E     E   E   E   S S E     E         S   S E
|---------------------------------|---------------------------------------------|
|-2---2---2---2-2-2---3---3-3-3---|-2---2---2---2-2-2-----3---------3---3-3-----|
|-2---2---2---2-2-2---2---2-2-2---|-2---2---2---2-2-2-----2---------2---2-2-----|
|-2---2---2---2-2-2---4---4-4-4---|-2---2---2---2-2-2-----4---------4---4-4-----|
|-0---0---0---0-0-0---0---0-0-0---|-0---0---0---0-0-0-----0---------0---0-0-----|
|---------------------------------|---------------------------------------------|
|
| S S S S S S S S S S S S S S S S   S S S S S S S S E     S S      +S   S E
|---------------------------------|---------------------------------------------|
|---------------------------------|---------------------------------------------|
|-0h2---2---2---2-0h2---2---2---2-|-0h2---2---2---2-------2-------------2-------|
|---------------------------------|---------------------------------------------|
|-----0---0---0-------0---0---0---|-----0---0---0---3b3.5---3b3.5==(3)r---3b3.5-|
|---------------------------------|---------------------------------------------|


  A                D/A
  E   E   E  S S E E    S S E
|------------------------------------|
|-2---2---2--2-2-2-3----3-3-3--------|
|-2---2---2--2-2-2-2----2-2-2--------|
|-2---2---2--2-2-2-4----4-4-4--------|
|-0---0---0--0-0-0-0----0-0-0--------|
|------------------------------------|
|
|                ~
| S S S S E  E   E S S  S S T T S
|------------------------------------|
|------------------8---10-8----------|
|-0h2---2---/9---9---9------9s7p5----|
|-0h2---2-0--------------------------|
|-----0------------------------------|
|------------------------------------|


                                       Outro
                        D.S. al Coda &
  A                                     A                 D/A
  E     E   E   S S E   E     E   E     E   E   E S S E   E   S S E
|------------------------------------||-------------------------------|
|-2-----2---2---2-2-2---2-----2---2--||-2---2---2-2-2-2---3---3-3-3---|
|-2-----2---2---2-2-2---2-----2---2--||-2---2---2-2-2-2---2---2-2-2---|
|-2-----2---2---2-2-2---2-----2---2--||-2---2---2-2-2-2---4---4-4-4---|
|-0-----0---0---0-0-0---0-----0---0--||-0---0---0-0-0-0---0---0-0-0---|
|------------------------------------||-------------------------------|
|
| T T S S S S S S S S S T T S S S E     S S S S E S S S S S S E   S S
|------------------------------------||-------------------------------|
|------------------------------------||-------------------------------|
|-7p5---7-5--------------------------||-------------------------------|
|-----7-----7-----5-7-5--------------||-5-7-7-7-7-7-7-5-7-7-7-7---7-7-|
|-------------5h7-------7s5p3-5-3----||-0-------0-----0-------0-------|
|---------------------------------5--||-------------------------------|


  C                       F5        D
  E   E   E S S E   E      E    E    W           +E   E Q  H
|---------------------------------|-10--------|-(10)/-----------*|
|-2---2---2-2-2-2---2-------------|-10--------|-(10)/-----------*|
|-2---2---2-2-2-2---2-----10---10-|-11--------|-(11)/-----------*|
|-2---2---2-2-2-2---2-----10---10-|-12--------|-(12)/-----------*|
|-0---0---0-0-0-0---0-------------|-12--------|-(12)/-----------*|
|---------------------------------|-10--------|-(10)/-----------*|
|
| S S S S E S S S S T T S  S S  E    W           +E   E Q  H
|---------------------------------|-----------|-----------------*|
|---------------------------------|-----------|-----------------*|
|---------------------------------|-11--------|-(11)------------*|
|-5-7-7-7-7-7-7-7-5---------------|-12--------|-(12)------------*|
|-0-------0---------7s5-3--5-3----|-12--------|-(12)------------*|
|-------------------------------5-|-10--------|-(10)------------*|


Duration Legend
---------------
W - whole; H - half; Q - quarter; E - 8th; S - 16th; T - 32nd; X - 64th; a - acciaccatura
+ - note tied to previous; . - note dotted; .. - note double dotted
Uncapitalized letters represent notes that are staccato (1/2 duration)
Irregular groupings are notated above the duration line
Duration letters will always appear directly above the note/fret number it represents the
duration for.  Duration letters with no fret number below them represent rests.  Multi-
bar rests are notated in the form Wxn, where n is the number of bars to rest for.  Low
melody durations appear below the staff

Tablature Legend
----------------
 h   - hammer-on
 p   - pull-off
 b   - bend
 pb  - pre-bend
 r   - bend release (if no number after the r, then release immediately)
 /\  - slide into or out of (from/to "nowhere")
 s   - legato slide
 S   - shift slide
  - natural harmonic
[n]  - artificial harmonic
n(n) - tapped harmonic
 ~   - vibrato
 tr  - trill
 T   - tap
 TP  - trem. picking
 PM  - palm muting
\n/  - tremolo bar dip; n = amount to dip
 \n  - tremolo bar down
 n/  - tremolo bar up
/n\  - tremolo bar inverted dip
 =   - hold bend; also acts as connecting device for hammers/pulls
 <>  - volume swell (louder/softer)
 x   - on rhythm slash represents muted slash
 o   - on rhythm slash represents single note slash

Misc Legend
-----------
 |  - bar
||  - double bar
||o - repeat start
o|| - repeat end
*|  - double bar (ending)
 :  - bar (freetime)
 $  - Segno
 &  - Coda
Tempo markers -  = BPM(8/16=s8/s16), where s8 = swing 8ths, s16 = swing 16ths
Добавлено: 28.08.2015
Другие материалы по этой песне:

Страница создана 02.08.2013
http://primanota.ru/rolling-stones/stray-cat-blues-live-chords.htm
Привет, Гость.
Предлагаем пройти революционный курс по гитаре.
Подарок от PrimaNota.Ru, забирай!