PrimaNota.ru - самый крупный в мире бесплатный архив песенных текстов, аккордов, табулатур и нот


Red Guitar - Gravity Lies - таба, видео

Регистрация Запомнить меня
Войти через:  Facebook Google Twitter Vk Yandex Mail.ru

Red Guitar - Gravity Lies - таба, видео

Печатать
Просмотров: 118
-------------------------------------------------------------------------------
                             Gravity Lies - Red
-------------------------------------------------------------------------------
Tabbed by: StevenBeaven90
E-mail: stevenkotelnikov@Gmail.com
Feel free to email me if you have any questions about this tab or any other of my tabs.

Tuning: Drop Bb
Please note: The differences b/t Intro Pt.1 and Pt.2 are not typos. Intro Pt.1 has 
one note difference in the first half and cuts off two notes short on the second
half.

[Intro Pt.1](0:00-0:06)(w/ muffled sound effect)
Rhythm Guitar
C|---------------------------------------------------------------------------|
G|---------------------------------------------------------------------------|
D#|--------------------------------------------------------------------------|
a#|--------------------------------------------------------------------------|
F|---------------------------------------------------------------------------|
A#|-0-7-5-0-0-4-7-0-0-5-2-0-0-2-5--------------------------------------------|

C|---------------------------------------------------------------------------|
G|---------------------------------------------------------------------------|
D#|--------------------------------------------------------------------------|
a#|--------------------------------------------------------------------------|
F|---------------------------------------------------------------------------|
A#|-0-7-5-0-0-7-5-0-0-8-5-0--------------------------------------------------|

[Intro Pt.2](0:06-0:17)
Rhythm Guitar (x2)
C|---------------------------------------------------------------------------|
G|---------------------------------------------------------------------------|
D#|--------------------------------------------------------------------------|
a#|--------------------------------------------------------------------------|
F|---------------------------------------------------------------------------|
A#|-0-7-5-0-0-4-7-0-0-5-2-0-0-2-4--------------------------------------------|

C|---------------------------------------------------------------------------|
G|---------------------------------------------------------------------------|
D#|--------------------------------------------------------------------------|
a#|--------------------------------------------------------------------------|
F|---------------------------------------------------------------------------|
A#|-0-7-5-0-0-7-5-0-0-8-5-0-9-5----------------------------------------------|

[Verse I](0:17-0:39)
Rhythm Guitar
C|---------------------------------------------------------------------------|
G|---------------------------------------------------------------------------|
D#|--------------------------------------------------------------------------|
a#|----6--5-----------6--5-----------6--5-----------6--5---------------------|
F|--8--------------8--------------8--------------8---------------------------|
A#|--------------------------------------------------------------------------|

C|---------------------------------------------------------------------------|
G|---------------------------------------------------------------------------|
D#|--------------------------------------------------------------------------|
a#|----6--5-----------6--5-----------6--5-----------6--5---------------------|
F|--6--------------6--------------4--------------4---------------------------|
A#|--------------------------------------------------------------------------|

[Pre-chorus I](0:39-0:50)
Rhythm Guitar (x2)
C|---------------------------------------------------------------------------|
G|----------5------------5------------5--------------------------------------|
D#|---------5------------5------------5--------------------------------------|
a#|-0-3---x-3----0-3---x-3----0-3---x-3----4-3-0-3-7-------------------------|
F|--0-3---x------0-3---x------0-3---x------4-3-0-3-7-------------------------|
A#|-0-3---x------0-3---x------0-3---x------4-3-0-3-7-------------------------|

[Chorus I](0:50-1:12)
Rhythm Guitar
C|---------------------------------------------------------------------------|
G|---------------------------------------------------------------------------|
D#|--------------------------------------------------------------------------|
a#|---------------------------------------------------------x-x--------------|
F|----------------------------------------------------------x-x--------------|
A#|---------------------------------------------------------x-x--------------|

C|---------------------------------------------------------------------------|
G|---------------------------------------------------------------------------|
D#|--------------------------------------------------------------------------|
a#|-6-----------------------1------------------------------------------------|
F|--6-(x8)------------------1-(x8)-------------------------------------------|
A#|-6-----------------------1------------------------------------------------|

C|---------------------------------------------------------------------------|
G|---------------------------------------------------------------------------|
D#|-3-----------------------6------------------------------------------------|
a#|-3-(x8)------------------6-(x8)-------------------------------------------|
F|--1-----------------------4------------------------------------------------|
A#|--------------------------------------------------------------------------|

C|---------------------------------------------------------------------------|
G|---------------------------------------------------------------------------|
D#|--------------------------------------------------------------------------|
a#|-6-----------------------4------------------------------------------------|
F|--6-(x8)------------------4-(x8)-------------------------------------------|
A#|-6-----------------------4------------------------------------------------|

[Post-chorus I](1:12-1:23)
Rhythm Guitar (x2)
C|---------------------------------------------------------------------------|
G|---------------------------------------------------------------------------|
D#|--------------------------------------------------------------------------|
a#|--------------------------------------------------------------------------|
F|---------------------------------------------------------------------------|
A#|-0-7-5-0-0-4-7-0-0-5-2-0-0-2-4--------------------------------------------|

C|---------------------------------------------------------------------------|
G|---------------------------------------------------------------------------|
D#|--------------------------------------------------------------------------|
a#|--------------------------------------------------------------------------|
F|---------------------------------------------------------------------------|
A#|-0-7-5-0-0-7-5-0-0-8-5-0-9-5----------------------------------------------|

[Verse II](1:23-1:45)(Same for Rhythm Guitar as it is in Verse I)
Acoustic Guitar
C|-------4-----6--4-----4---------4-----6--4---------------------------------|
G|---------------------------------------------------------------------------|
D#|-5--6----6--------6-----6-5--6----6--------6--5--6------------------------|
a#|--------------------------------------------------------------------------|
F|---------------------------------------------------------------------------|
A#|--------------------------------------------------------------------------|

C|-------4-----6--4---------------4-----6--4---------------------------------|
G|---------------------------------------------------------------------------|
D#|-5--6----6--------6--5--6-5--6----6--------6--5--6------------------------|
a#|--------------------------------------------------------------------------|
F|---------------------------------------------------------------------------|
A#|--------------------------------------------------------------------------|

C|-------------6------------------------6------------------------------------|
G|-------8--------8---------------8--------8---------------------------------|
D#|-5--6----6--------6--5--6-5--6----6--------6--5--6------------------------|
a#|--------------------------------------------------------------------------|
F|---------------------------------------------------------------------------|
A#|--------------------------------------------------------------------------|

C|-------------8------------------------8------------------------------------|
G|-------6--------8---------------6--------8---------------------------------|
D#|-5--6----6--------6--5--6-5--6----6--------6--5--6------------------------|
a#|--------------------------------------------------------------------------|
F|---------------------------------------------------------------------------|
A#|--------------------------------------------------------------------------|

[Pre-chorus II](1:45-1:56)(Same as Pre-chorus I)

[Chorus II](1:56-2:17)
Rhythm Guitar
C|---------------------------------------------------------------------------|
G|---------------------------------------------------------------------------|
D#|-3-----------------------6------------------------------------------------|
a#|-3-(x8)------------------6-(x8)-------------------------------------------|
F|--1-----------------------4------------------------------------------------|
A#|--------------------------------------------------------------------------|

C|---------------------------------------------------------------------------|
G|---------------------------------------------------------------------------|
D#|--------------------------------------------------------------------------|
a#|-6-----------------------1------------------------------------------------|
F|--6-(x8)------------------1-(x8)-------------------------------------------|
A#|-6-----------------------1------------------------------------------------|

C|---------------------------------------------------------------------------|
G|---------------------------------------------------------------------------|
D#|-3-----------------------6------------------------------------------------|
a#|-3-(x8)------------------6-(x8)-------------------------------------------|
F|--1-----------------------4------------------------------------------------|
A#|--------------------------------------------------------------------------|

C|---------------------------------------------------------------------------|
G|---------------------------------------------------------------------------|
D#|--------------------------------------------------------------------------|
a#|-6-----------------------4------------------------------------------------|
F|--6-(x8)------------------4-(x8)-------------------------------------------|
A#|-6-----------------------4------------------------------------------------|

[Bridge Pt.1](2:17-2:28)
Rhythm Guitar (x2)
C|---------------------------------------------------------------------------|
G|---------------------------------------------------------------------------|
D#|--------------------------------------------------------------------------|
a#|-3pbr--3pbr--4-3-0-3-6--0---3pbr-3pbr--4-3-0-3-6--------------------------|
F|--3pbr--3pbr--4-3-0-3-6--0---3pbr-3pbr--4-3-0-3-6--------------------------|
A#|-3pbr--3pbr--4-3-0-3-6--0---3pbr-3pbr--4-3-0-3-6--------------------------|

[Bridge Pt.2](2:28-3:27)
Acoustic Guitar
C|---------------------------------------------------------------------------|
G|---------------------------------------------------------------------------|
D#|-----6----------6-5--------6-5--------------------------------------------|
a#|-------4------------------------------3-5---------------------------------|
F|----8----------8----------6----------1-------------------------------------|
A#|-8----------8----------6----------1---------------------------------------|

C|---------------------------------------------------------------------------|
G|---------------------------------------------------------------------------|
D#|-----6----------6-5----------8--------------------------------------------|
a#|-------4-----------------------10----------13-----------------------------|
F|----8----------8-----------11------------11----11--------------------------|
A#|-8----------8----------11------------11-----------------------------------|

C|---------------------------------------------------------------------------|
G|---------------------------------------------------------------------------|
D#|-----6----------6-5----------8--------------------------------------------|
a#|-------4-----------------------10--------3-5------------------------------|
F|----9----------8-----------11-----------1----------------------------------|
A#|-9----------8----------11------------1------------------------------------|

C|---------------------------------------------------------------------------|
G|---------------------------------------------------------------------------|
D#|-----6-5------------------------------------------------------------------|
a#|------------------11-13--------6----------3-5-----------------------------|
F|----8-----------11------------6---6------1---------------------------------|
A#|-8----------11-------------6----------1-----------------------------------|

C|---------------------------------------------------------------------------|
G|---------------------------------------------------------------------------|
D#|-----6-5------------------------------------------------------------------|
a#|------------------11-13--------6----------4-------------------------------|
F|----8-----------11------------6---6------4---4-----------------------------|
A#|-8----------11-------------6----------4-----------------------------------|

[Pre-chorus III](3:27-3:38)
Rhythm Guitar
C|---------------------------------------------------------------------------|
G|---------------------------------------------------------------------------|
D#|-3-----------------------6------------------------------------------------|
a#|-3-(x8)------------------6-(x8)-------------------------------------------|
F|--1-----------------------4------------------------------------------------|
A#|--------------------------------------------------------------------------|

C|---------------------------------------------------------------------------|
G|---------------------------------------------------------------------------|
D#|--------------------------------------------------------------------------|
a#|-6-----------------------1------------------------------------------------|
F|--6-(x8)------------------1-(x8)-------------------------------------------|
A#|-6-----------------------1------------------------------------------------|

[Chorus III](3:38-4:00)(Same as Chorus II)

[Chorus IV](4:00-4:22)(Same as Chorus II)

[Outroduction](4:22-4:34)
Rhythm Guitar (x2)
C|---------------------------------------------------------------------------|
G|---------------------------------------------------------------------------|
D#|--------------------------------------------------------------------------|
a#|-3pbr--3pbr--4-3-0-3-6--0---3pbr-3pbr--4-3-0-3-6--------------------------|
F|--3pbr--3pbr--4-3-0-3-6--0---3pbr-3pbr--4-3-0-3-6--------------------------|
A#|-3pbr--3pbr--4-3-0-3-6--0---3pbr-3pbr--4-3-0-3-6--------------------------|


************************************

| /   slide up
| \   slide down
| x   Mute note
| pbr Pre-bend release

************************************
Добавлено: 02.10.2015
Другие материалы по этой песне:
  • Аккорды и текст

Страница создана 02.10.2015
http://primanota.ru/red-guitar/gravity-lies-chords.htm
Привет, Гость.
Предлагаем пройти революционный курс по гитаре.
Подарок от PrimaNota.Ru, забирай!