PrimaNota.ru - самый крупный в мире бесплатный архив песенных текстов, аккордов, табулатур и нот


Red Guitar - The Ever - таба, видео

Регистрация Запомнить меня
Войти через:  Facebook Google Twitter Vk Yandex Mail.ru

Red Guitar - The Ever - таба, видео

Печатать
Просмотров: 149
Уроки эстрадного вокала в Санкт-Петербурге
-------------------------------------------------------------------------------
                               Red - The Ever
-------------------------------------------------------------------------------
Tabbed by: StevenBeaven90
E-mail: stevenkotelnikov@Gmail.com
Feel free to email me if you have any questions about this tab or any other of my tabs.

Tuning: Drop C

[Intro](0:16-1:01)
Rhythm Guitar (x3)(palm-muted)
D|---------------------------------------------------------------------------|
A|---------------------------------------------------------------------------|
F|---------------------------------------------------------------------------|
C|-2-2-2-2-5-2-5-2--2-2-2-2-2----5-------------------------------------------|
G|-2-2-2-2-2-2-2-2--2-2-2-2-2----5-(x16)-------------------------------------|
C|-2-2-2-2-2-2-2-2--2-2-2-2-2----5-------------------------------------------|

D|---------------------------------------------------------------------------|
A|---------------------------------------------------------------------------|
F|------------------------7-5-4----------------------------------------------|
C|-0-0-0-0-4-5-4-2--0-0-0-0-0-0--2-2-2-2-4-4-4-4-5-5-5-5-0-0-0-0-------------|
G|-0-0-0-0-0-0-0-0--0-0-0-0-0-0--2-2-2-2-4-4-4-4-5-5-5-5-0-0-0-0-------------|
C|-0-0-0-0-0-0-0-0--0-0-0-0-0-0--2-2-2-2-4-4-4-4-5-5-5-5-0-0-0-0-------------|

[Verse I](1:01-1:31)(No Guitar)

[Pre-chorus I](1:31-1:35)
Rhythm Guitar
D|---------------------------------------------------------------------------|
A|-------------------8-8-8-8-7-7-7-------------------------------------------|
F|---------------------------------------------------------------------------|
C|---------------------------------------------------------------------------|
G|---------------------------------------------------------------------------|
C|---------------------------------------------------------------------------|

[Chorus I](1:35-2:04)
Rhythm Guitar
D|---------------------------------------------------------------------------|
A|---------------------------------------------------------------------------|
F|---------------------------------------------------------------------------|
C|-2--------4-------5--------7-7-7-\-0---------------------------------------|
G|-2-(x13)--4-(x3)--5-(x13)--7-7-7-\-0-(x16)---------------------------------|
C|-2--------4-------5--------7-7-7-\-0---------------------------------------|

D|---------------------------------------------------------------------------|
A|---------------------------------------------------------------------------|
F|---------------------------------------------------------------------------|
C|-2-2-2-2-4-4-4-4-5-5-5-5-/-10-10-10-10-\-----------------------------------|
G|-2-2-2-2-4-4-4-4-5-5-5-5-/-10-10-10-10-\-----------------------------------|
C|-2-2-2-2-4-4-4-4-5-5-5-5-/-10-10-10-10-\-----------------------------------|

D|---------------------------------------------------------------------------|
A|---------------------------------------------------------------------------|
F|---------------------------------------------------------------------------|
C|-2--------4-------5--------7-7-7-\-0---------------------------------------|
G|-2-(x13)--4-(x3)--5-(x13)--7-7-7-\-0-(x16)---------------------------------|
C|-2--------4-------5--------7-7-7-\-0---------------------------------------|

D|---------------------------------------------------------------------------|
A|---------------------------------------------------------------------------|
F|---------------------------------------------------------------------------|
C|-2-2-2-2-4-4-4-4-5-5-5-5-/-10-10-10-10-------------------------------------|
G|-2-2-2-2-4-4-4-4-5-5-5-5-/-10-10-10-10-------------------------------------|
C|-2-2-2-2-4-4-4-4-5-5-5-5-/-10-10-10-10-------------------------------------|

[Verse II](2:04-2:34)
Rhythm Guitar (all palm-muted chords)(the eight "5" notes at the end are not 
palm-muted)
D|---------------------------------------------------------------------------|
A|---------------------------------------------------------------------------|
F|---------------------------------------------------------------------------|
C|-2-------5-------7-------10-------2-------5-------7-------10---------------|
G|-2-(x8)--5-(x8)--7-(x8)--10-(x8)--2-(x8)--5-(x8)--7-(x8)--10-(x8)----------|
C|-2-------5-------7-------10-------2-------5-------7-------10---------------|

D|---------------------------------------------------------------------------|
A|---------------------------------------------------------------------------|
F|-------------------------7-------------------------------------------------|
C|-2-------5-------7-------7-(x8)---2-------5-------7-------5-5-5-5-5-5-5-5--|
G|-2-(x8)--5-(x8)--7-(x8)--5--------2-(x8)--5-(x8)--7-(x8)-------------------|
C|-2-------5-------7----------------2-------5-------7------------------------|

[Bridge](2:34-3:04)
Rhythm Guitar (x4)
D|---------------------------------------------------------------------------|
A|---------------------------------------------------------------------------|
F|---------------------------------------------------------------------------|
C|-2-------5-------4-------7-------------------------------------------------|
G|-2-(x8)--5-(x8)--4-(x8)--7-(x8)--------------------------------------------|
C|-2-------5-------4-------7-------------------------------------------------|

[Chorus II](3:04-3:34)
Rhythm Guitar
D|---------------------------------------------------------------------------|
A|---------------------------------------------------------------------------|
F|---------------------------------------------------------------------------|
C|-------------2-4-4-4-5-5-5-5-5-5-5-5-5-5-5-5-5-7-7-7-\-0-------------------|
G|-------------2-4-4-4-5-5-5-5-5-5-5-5-5-5-5-5-5-7-7-7-\-0-(x16)-------------|
C|-------------2-4-4-4-5-5-5-5-5-5-5-5-5-5-5-5-5-7-7-7-\-0-------------------|

D|---------------------------------------------------------------------------|
A|---------------------------------------------------------------------------|
F|---------------------------------------------------------------------------|
C|-2-2-2-2-4-4-4-4-5-5-5-5-/-10-10-10-10-\-----------------------------------|
G|-2-2-2-2-4-4-4-4-5-5-5-5-/-10-10-10-10-\-----------------------------------|
C|-2-2-2-2-4-4-4-4-5-5-5-5-/-10-10-10-10-\-----------------------------------|

D|---------------------------------------------------------------------------|
A|---------------------------------------------------------------------------|
F|---------------------------------------------------------------------------|
C|-2--------4-------5--------7-7-7-\-0---------------------------------------|
G|-2-(x13)--4-(x3)--5-(x13)--7-7-7-\-0-(x16)---------------------------------|
C|-2--------4-------5--------7-7-7-\-0---------------------------------------|

D|---------------------------------------------------------------------------|
A|---------------------------------------------------------------------------|
F|---------------------------------------------------------------------------|
C|-2-2-2-2-4-4-4-4-5-5-5-5-/-10-10-10-10-------------------------------------|
G|-2-2-2-2-4-4-4-4-5-5-5-5-/-10-10-10-10-------------------------------------|
C|-2-2-2-2-4-4-4-4-5-5-5-5-/-10-10-10-10-------------------------------------|

[Outroduction](3:34-4:11)(No Guitar)

************************************

| /   slide up
| \   slide down
| x   Mute note

************************************
Добавлено: 02.10.2015
Другие материалы по этой песне:
  • Аккорды и текст

Страница создана 02.10.2015
http://primanota.ru/red-guitar/ever-chords.htm
Привет, Гость.
Предлагаем пройти революционный курс по гитаре.
Подарок от PrimaNota.Ru, забирай!