PrimaNota.ru - самый крупный в мире бесплатный архив песенных текстов, аккордов, табулатур и нот


Red Guitar - Shadow And Soul - таба, видео

Регистрация Запомнить меня
Войти через:  Facebook Google Twitter Vk Yandex Mail.ru

Red Guitar - Shadow And Soul - таба, видео

Печатать
Просмотров: 144
-------------------------------------------------------------------------------
                             SHADOW AND SOUL - Red
-------------------------------------------------------------------------------
Tabbed by: GaleForceRocks
E-mail: galeforce100@icloud.com

Tuning: Drop Bb

Check out my Guitar Pro tab of this song for more detailed rhythms.

Intro
C |-------------------------------------------------------------|
G |-------------------------------------------------------------|
Eb|---------7---------------------------7-----------------------|
Bb|-0---0-6-----0-6-0---0-0-6-5-0---0-6-----0-6-0---0-0-6-8-6-8-|
F |-0---0-6-5---0-6-0---0-0-6-5-0---0-6-5---0-6-0---0-0-6-8-6-8-|
Bb|-0---0-6-----0-6-0---0-0-6-5-0---0-6-----0-6-0---0-0-6-8-6-8-|

C |-------------------------------------------------------------|
G |-------------------------------------------------------------|
Eb|---------7---------------------------7-----------------------|
Bb|-0---0-6-----0-6-0---0-0-6-5-0---0-6-----0-6-0---0-3-6-0-5-8-|
F |-0---0-6-5---0-6-0---0-0-6-5-0---0-6-5---0-6-0---0-3-6-0-5-8-|
Bb|-0---0-6-----0-6-0---0-0-6-5-0---0-6-----0-6-0---0-3-6-0-5-8-|

Verse 1 Guitar Lick 1 ('Buried, I kept you, Helpless, I'm reaching out')
C |-----------------------------------------------------------------|
G |-----------------------------------------------------------------|
Eb|-----------------------------------------------------------------|
Bb|-----------------------------------------------------------------|
F |---------5-5-8-8---------5-5-8-8---------5-5-8-8---------5-5-8-8-|
Bb|-0-0-8-8---------0-0-8-8---------0-0-7-7---------0-0-7-7---------|

C |-----------------------------------------------------------------|
G |-----------------------------------------------------------------|
Eb|-----------------------------------------------------------------|
Bb|-------------5-5-------------5-5-------------4-4-------------4-4-|
F |---------5-5-------------5-5-------------5-5-------------5-5-----|
Bb|-0-0-8-8---------0-0-8-8---------0-0-7-7---------0-0-7-7---------|

Verse 1 Guitar Lick 2 (After 'Waiting for me')
C |---------------------------------|
G |---------------------------------|
Eb|---------------------------------|
Bb|-0-7-8-7-0-7-8---0-5-8-7-0-5-7---|
F |-0-7-8-7-0-7-8---0-5-8-7-0-5-7---|
Bb|-0-7-8-7-0-7-8---0-5-8-7-0-5-7---|

Chorus 1 ('Shadow and soul...') (Strum)
C |-----------------|
G |-----------------|
Eb|-----------------|
Bb|-8---3---7---8---|   x2
F |-8---3---7---8---|
Bb|-8---3---7---8---|

Interlude (Same as intro)

Verse 2 (Same as verse 1)

Chorus 2 (Same as chorus 1)

Bridge Part 1
C |-------------------------------------------------|
G |-------------------------------------------------|
Eb|-------------------------------------------------|
Bb|-8-8-8-8-8---3-3-3-3-3---6-6-6-6-6---1-1-1-1-1---|
F |-8-8-8-8-8---3-3-3-3-3---6-6-6-6-6---1-1-1-1-1---|
Bb|-8-8-8-8-8---3-3-3-3-3---6-6-6-6-6---1-1-1-1-1---|

C |-----------------------------------------------------|
G |-----------------------------------------------------|
Eb|-----------------------------------------------------|
Bb|-8-8-8-8-8---3-3-3-3-3---6-6-6-6-6---8-8-8-8-4-4-4-4-|
F |-8-8-8-8-8---3-3-3-3-3---6-6-6-6-6---5-5-5-5-4-4-4-4-|
Bb|-8-8-8-8-8---3-3-3-3-3---6-6-6-6-6---5-5-5-5-4-4-4-4-|

Bridge Part 2
C |-------------------------------------------------------------------------------|
G |-------------------------------------------------------------------------------|
Eb|-------------------------------------------------------------------------------|
Bb|-------------------------------------------------------------------------------|
F |-------------------------------------------------------------------------------|
Bb|-4-(x16)-5-(x16)-6-(x16)-7-(x16)-8-(x16)-10-(x8)-6-(x8)-11-(x16)-5-(x8)-4-(x8)-|

Thanks for reading the tab, please rate and comment corrections!

************************************

| /   slide up
| \   slide down
| h   hammer-on
| p   pull-off
| ~   vibrato
| +   harmonic
| x   Mute note
| b   Bend
| pb  Pre-bend
| br  Bend release
| pbr Pre-bend release
| brb Bend release bend

************************************
Добавлено: 02.10.2015
Другие материалы по этой песне:
  • Аккорды и текст

Страница создана 02.10.2015
http://primanota.ru/red-guitar/shadow-and-soul-chords.htm
Привет, Гость.
Предлагаем пройти революционный курс по гитаре.
Подарок от PrimaNota.Ru, забирай!