PrimaNota.ru - самый крупный в мире бесплатный архив песенных текстов, аккордов, табулатур и нот


Ramin Djawadi - Game Of Thrones Theme - таба, видео

Регистрация Запомнить меня
Войти через:  Facebook Google Twitter Vk Yandex Mail.ru

Ramin Djawadi - Game Of Thrones Theme - таба, видео

Печатать
Просмотров: 303
-------------------------------------------------------------------------------
                           Game of Thrones Theme - Ramin Djawadi
-------------------------------------------------------------------------------
Tabbed by: Ralph
E-mail: roulfi004@hotmail.com

Tuning: Standard - With Capo first fret

This is a Ballad version i like to play.

First Part starts with a repeat few times of the below
 e|---2------------------------------------------------------------------------|
 B|-----0-3-5------------------------------------------------------------------|
 G|----------------------------------------------------------------------------|
 D|----------------------------------------------------------------------------|
 A|----------------------------------------------------------------------------|
 E|----------------------------------------------------------------------------|

And continues with a repeat of:
 e|---2------------------------------------------------------------------------|
 B|-----0-4-5------------------------------------------------------------------|
 G|----------------------------------------------------------------------------|
 D|----------------------------------------------------------------------------|
 A|----------------------------------------------------------------------------|
 E|----------------------------------------------------------------------------|

Now the Chords:
 The idea is hitting the chord and striking on the relevant string to amplify its note.
 the dots "." are strike the chord thats before them (not gona repeat chords cuz it messes the view)
 a strike for each dot, or you can strike as much as you feel you want to during the time interval and play
 it your way or even ignore the dots and go soft on it. 

e|-2..2..-----2..---------2------2-------2-------2-----------------------------------------|
B|-3..3..-----3..3--------2------2-------2-------2-----------------------------------------|
G|-4..4..-----4..4--------3-3----3-------3-------3-----------------------------------------|
D|-4..4..---2-4..4----2---4-4----4-------4-------4-4-4-------------------------------------|
A|----2..-5----..2--5-----4-4--2-4-----2-4-----2-4-4-4-------------------------------------|
E|------------------------2-2-5--2-2-5---2-2-5---2-2-2-------------------------------------|


e|-0..-..-----0..0--------------------------------0-----------------------------------------|
B|-2..2..-----2..2------------------------0-------0-----------------------------------------|
G|-2..2..-----2..2--------0-0-----0-------0-------0-0-0-------------------------------------|
D|-2..2..-----2..2--------2-2-----2-------2-------2-2-2-------------------------------------|
A|----0..-4-5--..0--5-4---2-2---0-2-----0-2-----0-2-2-2-------------------------------------|
E|------------------------0-0-4-----0-4-----0-4-----0-0-------------------------------------|

Repeat the above 2 paragraphs, then start the below:

e|-2..2..-----2..2--------2------2-------2-------2-----------------------------------------|
B|-3..3..-3-5-3..3--3-5---2------2-------2-------2-----------------------------------------|
G|-4..4..-----4..4--------3-3----3-------3-------3-----------------------------------------|
D|-4..4..-----4..4--------4-4----4-------4-------4-4-4-------------------------------------|
A|----2..------..2--------4-4--2-4-----2-4-----2-4-4-4-------------------------------------|
E|------------------------2-2-5--2-2-5---2-2-5---2-2-2-------------------------------------|


e|-0...0...--0...0...--------------------------------0-------------------------------------|
B|-2...2...--3...2...------------------------0-------0-------------------------------------|
G|-2...2...--2...2...--------0-0-----0-------0-------0-0-0---------------------------------|
D|-2...2...--2...2...--------2-2-----2-------2-------2-2-2---------------------------------|
A|-----0...------------------2-2---0-2-----0-2-----0-2-2-2---------------------------------|
E|---------------------------0-0-4-----0-4-----0-4-----0-0---------------------------------|


then it continues:
e|-7....--5h7--5....--2-5-2h3-2-0-----0..-2....----------3...--2...-0...-2--------------------------2.--|
B|-0....-------3....------------------0..-3....----------0...--3...-0...-3-3--------3-------3-------3.--|
G|-0....-------2....------------------1..-4....----------0...--2...-2...-4-4----2-4-4---2-4-4---2-4-4.--|
D|-0....-------0....------------------2..-4....-4p2-0----0...--0...-2...-4-4--4-----4-4-----4-4-----4.--|
A|-0....------------------------------2..-2....----------2...-------2...-2-2--------2-------2-----------|
E|-3------------------------------0-------------------3--3...-------------------------------------------|


and again with a some difference (notice the slide from A:2 to A:9 i thought it made it more interesting)

e|-7....--5-7--5....------------------0------2....----------3...--2...-0...-2--------------------------2--|
B|-0....-------3....------------------0------3....----------0...--3...-2...-3-3------------------------3--|
G|-0....-------2....----2-------------1------4....----------0...--2...-2...-4-4----2-4-----2-4-----2---4--|
D|-0....-------0....--4---4\5/4-2-----2------4....-4-2-0----0...--0...-2...-4-4--4-----4-4-----4-4-----4--|
A|-0....------------------------------2-\9/2-2....----------2...-------0...-2-2---------------------------|
E|-3------------------------------0----------------------3--3...------------------------------------------|



************************************

| /   slide up
| \   slide down
| h   hammer-on
| p   pull-off
| ~   vibrato
| +   harmonic
| x   Mute note
| b   Bend
| pb  Pre-bend
| br  Bend release
| pbr Pre-bend release
| brb Bend release bend

************************************
Добавлено: 28.11.2015
Другие материалы по этой песне:

Страница создана 07.05.2012
http://primanota.ru/ramin-djawadi/game-of-thrones-theme-chords.htm
Привет, Гость.
Предлагаем пройти революционный курс по гитаре.
Подарок от PrimaNota.Ru, забирай!