PrimaNota.ru - самый крупный в мире бесплатный архив песенных текстов, аккордов, табулатур и нот


Ramin Djawadi - Game Of Thrones - таба, видео

Регистрация Запомнить меня
Войти через:  Facebook Google Twitter Vk Yandex Mail.ru

Ramin Djawadi - Game Of Thrones - таба, видео

Печатать
Просмотров: 403
Авторы музыки: Ramin Djawadi

-------------------------------------------------------------------------------
                             GAME OF THRONES - Main Theme
-------------------------------------------------------------------------------
Tabbed by: Chris vT Music (Youtube Channel)

Tuning: Standard


e|-0-------0-------0-------0-------0-------0-------0-------0|
B|-1---1-3-----1-3-----1-3-----2-3-----2-3-2---2-3-2---2-3--|
G|-2-2-------2-------2-------2-------2-------2-------2------|
D|----------------------------------------------------------|
A|-0-------------------------------0------------------------|
E|----------------------------------------------------------|


2x
e|-0---0-------------------0----------------------------------------|
B|-1-------------------1-3---------1-3-0-------0-------0-------0----|
G|-2-------2-2---2---2-2-------2-----------0-2-----0-2-----0-2-----0|
D|-----------2---------2-------2---------2-------2-------2-------2--|
A|-0-0---0---0-0---0---0-----0-0-0----------------------------------|
E|-------------------------------------0-------0-------0-------0----|

e|------------------------------------------------------|
B|-3---3-----------0-0-1-0------------------------------|
G|-0-------0-0---0-0-0-----0-2------0-2------0-2-----0-2|
D|-0-------------------------0--0-3-----0-3------0-3----|
A|------------------------------------------------------|
E|-3-3---3---3-3---3-----3------------------------------|



e|------------------------------------------------------------------------|
B|------------------------------------------------------------------------|
G|-2---2-----2---0---0-----0----------------------------------------------|
D|-3-------3---3-2-------2---2-3---3-----3---2---2-----2------------------|
A|-3-3---3-------3-3---3-------1-------1---1-0-------0---0-3---3---3-3-3-3|
E|-----------------------------1-1---1-------0-0---0-------1-1---1---3----|

e|------------------------------|
B|------------------------------|
G|---2-----0-2-----0-2-----0-3-3|
D|-0-2-2-3-----2-3-----2-3------|
A|---0--------------------------|
E|-3----------------------------|

e|------------------------------------------------------------------------|
B|------------------------------------------------------------------------|
G|-2---2-----2---0---0-----0----------------------------------------------|
D|-3-------3---3-2-------2---2-3---3-----3---2---2-----2------------------|
A|-3-3---3-------3-3---3-------1-------1---1-0-------0---0-3---3---3-3-3-3|
E|-----------------------------1-1---1-------0-0---0-------1-1---1---3----|

e|---------------------------------------------------5-0-1-3-5-0-1-3-5-0-1-3-5|
B|----------------------------------------------------------------------------|
G|---------------------------2-----0-2-----0-2-----0--------------------------|
D|---------------------------2-2-3-----2-3-----2-3----------------------------|
A|-2-0-------0-------0-------0-----------------------0------------------------|
E|-3---0-1-3---0-1-3---0-1-3--------------------------------------------------|

Добавлено: 28.11.2015
Другие материалы по этой песне:

Страница создана 29.02.2012
http://primanota.ru/ramin-djawadi/game-of-thrones-chords.htm
Привет, Гость.
Предлагаем пройти революционный курс по гитаре.
Подарок от PrimaNota.Ru, забирай!