PrimaNota.ru - самый крупный в мире бесплатный архив песенных текстов, аккордов, табулатур и нот


Prince - When 2 r in Love - текст песни, бас-таба, видео

Регистрация Запомнить меня
Войти через:  Facebook Google Twitter Vk Yandex Mail.ru

Prince - When 2 r in Love - текст песни, бас-таба, видео

Печатать
Просмотров: 63
                                 When 2 R In Love
                                      Prince

Bass                                                              Prince 

As played by Prince

Intro

7 Bars Rest

|-----------------|-----------------|
|-3-----1---------|-----------------|
|-------------3---|-----------------|
|-----------------|---5-----4---2---|
  Q.    Q.    Q     E Q.    Q   Q

Verse 1

|-----------------|-----------------|-----------------|-----------------|
|-----------------|-----------------|-----------------|-----------------|
|-4---------------|(4)--------------|-----------------|-----------------|
|-----------------|-----------------|-2---------------|(2)--------------|
  W                 W                 W                 W

|-----------------|-----------------|-----------------|-----------------|
|-----------------|-----------------|-4-----1---------|-----------------|
|-4---------------|(4)--------------|-------------3---|-----------------|
|-----------------|-----------------|-----------------|---5-----4---2-1-|
  W                 W                 Q.    Q.    Q     E Q.    Q   E E

|-----------------|-----------------|-----------------|-----------------|
|-----------------|-----------------|-----------------|-----------------|
|-4---------------|(4)--------------|-----------------|-----------------|
|-----------------|-----------------|-2---------------|(2)--------------|
  W                 W                 W                 W

|-----------------|-----------------|-----------------|-----------------|
|-----------------|-----------------|-4-----1---------|-----------------|
|-4-------------4-|-----------------|-------------3---|-------------2-3-|
|-----------------|-----------------|-----------------|---5-----4-------|
  H.          E E   W                 Q.    Q.    Q     E Q.    Q   E E

|-----------------|-----------------|-----------------|-----------------|
|-----------------|-----------------|-----------------|-----------------|
|-4---------------|-----------------|-----------------|-----------------|
|-----------------|-2-4-4-----------|-2---------------|-2---------------|
  Q   Q   H         E E E E H         W                 E E Q   H

|-----------------|-----------------|-----------------|-----------------|
|-----------------|-----------------|-4-----1---------|-----------------|
|-4---------------|(4)--------------|-------------3---|-----------------|
|-----------------|-----------------|-----------------|---5-----4---2-1-|
  W                 W                 Q.    Q.    Q     E Q.    Q   E E

|-----------------|-----------------|-----------------|-----------------|
|-----------------|-----------------|-----------------|-----------------|
|-4---------------|(4)--------------|-----------------|-----------------|
|-----------------|-----------------|-2---------------|(2)--------------|
  W                 W                 W                 W

|-----------------|-----------------|-----------------|-----------------|
|-----------------|-----------------|-4-----1---------|-----------------|
|-4---------------|-4---4-----------|-------------3---|-----------------|
|---------------4-|---4-------------|-----------------|---5-----4---2-1-|
  H.          E E   E E E E H         Q.    Q.    Q     E Q.    Q   E E

Chorus 1

|-----------------|-----------------|-----------------|-3---------------|
|-----------------|-3-------6-------|-4-------6-------|---------3-------|
|-4-------6-------|-----------------|-----------------|-----------------|
|-----------------|-----------------|-----------------|-----------------|
  H       H         H       H         H       H         H       H       

|-----------------|-----------------|-----------------|-3---------------|
|-----------------|-3-------6-------|-4-------6-------|---------3-------|
|-4-------6-------|-----------------|-----------------|-----------------|
|-----------------|-----------------|-----------------|-----------------|
  H       H         H       H         H       H         H       H       

|-----------------|-----------------|-----------------|-3---------------|
|-----------------|-3-------6-------|-4-------6-------|---------3-------|
|-4-------6-------|-----------------|-----------------|-----------------|
|-----------------|-----------------|-----------------|-----------------|
  H       H         H       H         H       H         H       H       

|-----------------|-----------------|-----------------|-----------------|
|-8-------7-------|-6-------4-------|-----------------|-----------------|
|-----------------|-----------------|-8-------7-------|-6-------5-------|
|-----------------|-----------------|-----------------|-----------------|
  H       H         H       H         H       H         H       H    

Interlude 1

|-----------------|-----------------|-----------------|-----------------|
|-----------------|-----------------|-----------------|-----------------|
|-4---------------|(4)--------------|-----------------|-----------6-----|
|-----------------|-----------------|-----------------|-------------4-6-|
  W                 W                 W                 H       E E E E

|-----------------|-----------------|-----------------|-----------------|
|-----------------|-----------------|-----------------|-----------------|
|-----------------|-----------------|-----------------|-----------6-----|
|-0---------------|(0)--------------|(0)--------------|-------------4-6-|
  W                 W                 W                 H       E E E E

Verse 2

|-----------------|-----------------|-----------------|-----------------|
|-----------------|-----------------|-----------------|-----------------|
|-4---------------|-4---4-----------|-----------------|-1-------4-------|
|---------------4-|---4-------------|-2-------4-------|-----------------|
  H.          E E   E E E E H         H       H         H       H

|-----------------|-----------------|-----------------|-----------------|
|-----------------|-----------------|-4-----1---------|-----------------|
|-4---------------|(4)--------------|-------------3---|-----------------|
|-----------------|-----------------|-----------------|---5-----4---2-1-|
  W                 W                 Q.    Q.    Q     E Q.    Q   E E

|-----------------|-----------------|-----------------|-----------------|
|-----------------|-----------------|-----------------|-----------------|
|-4---------------|(4)--------------|-----------------|---1-1-----1-----|
|-----------------|-----------------|-2---------------|-2-------4-------|
  W                 W                 W                 E E Q   E E Q

|-----------------|-----------------|-----------------|-------------4---|
|-----------------|-----------------|-----------------|---4-----6-----6-|
|-4---------------|(4)--------------|-------3-----6---|-----------------|
|-----------------|-----------------|-5---------------|-----------------|
  W                 W                 Q.    Q.    Q     E Q.    Q   E E

Chorus 2

|-----------------|-----------------|-----------------|-3---3-3---------|
|-----------------|-3-------6-----6-|-4-------6-------|---------3-3-3-3-|
|-4-------3-------|-----------------|-----------------|-----------------|
|-----------------|-----------------|-----------------|-----------------|
  H       H         H       Q.    E   H       H         Q   E E E E E E

|-----------------|-----------------|-----------------|-3---------------|
|-----------------|-3-------6-------|-4-------6-------|---------3-4-5-6-|
|-4-------6-------|-----------------|-----------------|-----------------|
|-----------------|-----------------|-----------------|-----------------|
  H       H         H       H         H       H         H       E E E E 

|-----------------|-----------------|-----------------|-3-3-3---3-3-3-3-|
|-----------------|-3---------------|-----------------|-----------------|
|-4-------6-------|---------3-------|-4-------6-------|-----------------|
|-----------------|-----------------|-----------------|-----------------|
  H       H         H       H         H       H         E E Q   E E E E    
 
|-----------------|-----------------|-----------------|-3---------------|
|-----------------|-3-------6-------|-4-------6-------|---------3-3-6---|
|-4-------6-------|-----------------|-----------------|-----------------|
|-----------------|-----------------|-----------------|-----------------|
  H       H         H       H         H       H         H       E E Q

|-----------------|-----------------|-----------------|-----------------|
|-8-------7-------|-6-------4-------|-----------------|-----------------|
|-----------------|-----------------|-8-------7-------|-6-------5-------|
|-----------------|-----------------|-----------------|-----------------|
  H       H         H       H         H       H         H       H    

Interlude 1

|-----------------|-----------------|-----------------|-----------------|
|-----------------|-----------------|-----------------|-----------------|
|-4---------------|(4)--------------|-----------------|-----------6-----|
|-----------------|-----------------|-----------------|-------------4-6-|
  W                 W                 W                 H       E E E E
                               ___
                              | 3 |
|-----------------|-----------------|-----------------|-----------------|
|-----------------|-----------------|-----------------|-----------------|
|-----------------|-----------------|-----------------|-----------------|
|-0---------------|(0)----0-0-4-2-4-|-----------------|-----------------|
  W                 H   E S S E E E   W                 W

|-----------------|-----------------|-----------------|-----------------|
|-----------------|-----------------|---------4-1-----|-----------------|
|-4-4-4-4-4-------|-------1---------|-------------3-0-|-----------------|
|-----------------|---------4-------|-2---------------|-4---2-1-1-1-1---|
  E E E E H         Q   E E E E Q     H     E S S E E   Q   E E E E E E

Outro

|-----------------|-----------------|-----------------|-----------------|
|-----------------|-----------------|-----------------|-----------------|
|-4---------------|(4)--------------|-----------------|-----------------|
|-----------------|-----------------|-2---------------|-2-----------2-1-|
  W                 W                 W                 E E Q   Q   E E

|-----------------|-----------------|-----------------|-----------------||
|-----------------|-----------------|-4-----1---------|-----------------||
|-4---------------|-4---------------|-------------3---|-----------------||
|-----------------|-----------------|-----------------|---5-----4---2-1-||
  W                 E                 Q.    Q.    Q     E Q.    Q   E E


Key to rhythm notations:

W - Whole Note/Semi-Brieve
H - Half Note/Minim
Q - Quarter Note/Crotchet       Q. - Dotted Quarter Note
E - Eight Note/Quaver           E. - Dotted Eight Note
S - Sixteenth Note/Semi-Quaver  S. - Dotted Sixteenth Note
   
Добавлено: 14.04.2016
Другие материалы по этой песне:

Страница создана 17.06.2012
http://primanota.ru/prince/when-2-r-in-love-chords.htm
Привет, Гость.
Предлагаем пройти революционный курс по гитаре.
Подарок от PrimaNota.Ru, забирай!