PrimaNota.ru - самый крупный в мире бесплатный архив песенных текстов, аккордов, табулатур и нот


Prince - Temptation - текст песни, бас-таба, видео

Регистрация Запомнить меня
Войти через:  Facebook Google Twitter Vk Yandex Mail.ru

Prince - Temptation - текст песни, бас-таба, видео

Печатать
Просмотров: 35
Авторы: Prince, The Revolution

                                    Temptation
                                      Prince

Bass                                                              Prince 

As played by Prince
       ___
      | 3 |
E E = Q   E

Intro

8 Bars Rest                      ___             ___
                                | 3 |           | 3 |
|-----------------|-------------------|-------------------|-------------6---|
|-----------------|-------------------|-------------------|-----------------|
|-4---------------|---2---4-----4-----|-5-----4-----------|-4-4-----4-------|
|---0---2---3---4-|(4)------------2-0-|---------2-1-0-0-0-|-----0---------5-|
  E Q   Q   Q   E   E Q   Q.    E E e   Q.    E E E E E E   E E Q   E E E E

|-----------------|-----------------|-----------------|-----------------|
|-----------------|-------1---------|-----------------|-----------------|
|-----1---4-----1-|-----1---4-------|-4-----4-----4---|-4-4-----4-------|
|-2-2-------------|-2-2-----------2-|---1-1-----1---1-|-----1-------6-5-|
  E E Q   E E E E   E E E E E Q   E   E E E E E E E E   E E E E E E E E

|-----------------|-----------------|
|-------1---1-----|-------1---------|
|-----1---4---4-1-|-----1---4-------|
|-2-2-------------|-2-2-------------|
  E E E E E E E E   E E E E E E Q

Verse 1      ___
            | 3 |
|-----------------|-----------------|-----------------|-----------------|
|/3---------3---3-|-----------------|-------1---------|-----------------|
|-------------4---|-4-4-1-1-----4-1-|-----1---4-----1-|-----1---4-----1-|
|-----------------|---------4-1-----|-2-2-------------|-2-2-------------|
  E E Q  Q  E E E   E E E E E E E E   E E E E E Q   E   E E E E E Q   E
               ___         ___       ___
              | 3 |       | 3 |     | 3 |
|-------6---4-------|---------------------|-----------------|-----------------|
|-3-----------6-----|---------------------|-------1---1-----|-------1---1-----|
|---4-----------7-4-|-4-4-----4-----4-2---|-----1---4---4---|-----0---4---4---|
|-------------------|-----7-6---0-------4-|-2-2-----------2-|-2-2-----------2-|
  E E E E E E E E E   E E E E E E E E E E   E E E E E E E E   E E E E E E E E
                                                            ___
                                                           | 3 |
|-------------9---|-----------------|-----------------|-----------------|
|-----------7-----|-------------7---|-----------------|-----------------|
|-----4-4-7-------|-----4/7---------|-----------------|------2----------|
|-5---------------|-5-------5-------|-4-4---4---------|----4---5-4-4----|
  Q   E E E E E E   Q   E E E E E E   E E E Q   E Q     Q  E E E E E Q

|-------------9---|-----------------|-----------------|-----------------|
|-----------7---7-|-------4-----4---|-----------------|-----------------|
|-----4---7-------|-----4---7-----7-|-----------------|-----------------|
|-5-----5---------|-5---------------|-4---------------|----------1/13\1-|
  Q   E E E E E E   Q   E E E E E E   E E Q   H         H      E E E  E
  
Chorus 1                         ___             ___
                                | 3 |           | 3 |
|-----------------|-------------------|-------------------|-----------------|
|-----------------|-------------------|-------------------|-----------------|
|-4---------------|---2---4-----4-----|-5-----4-----------|-4-4-----4---4---|
|---0---2---3---4-|(4)------------2-0-|---------2-1-0-0-0-|-----0---------5-|
  E Q   Q   Q   E   E Q   Q.    E E E   Q.    E E E E E E   E E Q   E E E E
                                                   ___
                                                  | 3 | 
|-----------------|-----------------|-------------------|-----------------|
|-----------1-----|-------1---1-----|-------------2-----|-----------------|
|-----1-4-4---4-1-|-----1---4---4-1-|-4-----4-------4-2-|-4-4-----4---5---|
|-2-2-------------|-2-2-------------|---1-1-----1-------|-----1-----------|
  E E E E E E E E   E E E E E E E E   E E E E E E E E     E E E E E E Q
                                 ___
                                | 3 |
|-----------------|-------------------|
|-------1---1-----|-------1-----------|
|-----1---4---4-1-|-----1---4-----4-1-|
|-2-2-------------|-2-2---------------|
  E E E E E E E E   E E E E E E E E E

Verse 2      ___     ___   ___       ___
            | 3 |   | 3 | | 3 |     | 3 |
|-----------------|-----------------------|-----------------|-----------------|
|/3---------2-----|-2---------------------|-----------1-----|-----------------|
|---------------1-|---4-1-----4-----2-----|-----1---4---4---|-----1---4-----1-|
|-------------2---|-------4-6---4-0---4-0-|-2-2---2---------|-2-2-------------|
  E E Q  Q  E E E   E E E E E E E E         E E E E E E E E   E E E E E Q   E
                     ___       ___
                    | 3 |     | 3 |
|-----------------|---------------------|-----------------|-----------------|
|-3---------------|---------------------|-------1---------|-------1---------|
|---4-------------|-4-3-2-1-------------|-----1---4-------|-----1---4-------|
|-----4-4---------|-----------6-5-4-4---|-2-2-----------2-|-2-2-------------|
  E E E E H         E E E E E E E E E E   E E E E E Q   E   E E E E E E Q  

|-----------------|-----------------|-----------------|-----------------|
|-------------4---|-------------4---|-----------------|-----------------|
|-----4---7-7-----|-----4---7-------|-----------------|-----------------|
|-5-----0---------|-5-----0-------5-|-4-4---4---------|-----------------|
  Q   E E E E Q     Q   E E Q   E E   E E E Q   E Q     W
                     ___       ___
                    | 3 |     | 3 |
|-----------------|-----6---6-----------|-----------------|-----------------|
|-----------4-7---|-7-9---9---9-7-6-4---|-----------------|-----------------|
|-----4---7-------|-------------------7-|-----------------|-----------------|
|-5-----5-------5-|---------------------|-4-4-----4-4-----|-4-4-----4-4-----|
  Q   E E E E E E   E E E E E E E E E E   E E Q   E E Q     E E Q   E E Q

Chorus 2                         ___             ___
                                | 3 |           | 3 |
|-----------------|-------------------|-------------------|-----------------|
|-----------------|-------------------|-------------------|-----------------|
|-4---------------|---2---4-----4-----|-5-----4-----------|-4-4-----4---6---|
|---0---2---3---4-|(4)------------2-0-|---------2-1-0-0-0-|-----0-----------|
  E Q   Q   Q   E   E Q   Q.    E E E   Q.    E E E E E E   E E Q   E E Q
                                               ___
                                              | 3 | 
|-----------------|-----------------|-------------------|-----------------|
|-----------1-----|-------1---1-----|-------------------|-----------------|
|-----1-4-4---4---|-----1---4---1---|-5-----4-----------|-4-4-----4-------|
|-2-2-------------|-2-2-----------2-|---------2-1-0-0-0-|-----0-----------|
  E E E E E E E E   E E E E E E E E   E E E E E E E E E   E E E E E E Q

|-----------------|-----------------|-----------------|-----------------|
|-------1-----1---|-------1---------|-----------------|-----------------|
|-----1---4-----4-|-----1---4-------|-------------4-7-|-------------4---|
|-2-2-------------|-2-2-------------|-5-------0-------|-5-------3-3---5-|
  E E E E E E E E   E E E E E E Q     H       Q   E E   H       E E E E

|-----------------|-----------------|
|-----------------|-----------------|
|-----------------|-----------------|
|-4---------------|-----------------|
  E E Q   H         W

Chorus 3                         ___             ___
                                | 3 |           | 3 |
|-----------------|-------------------|-------------------|-----------------|
|-----------------|-------------------|-------------------|-----------------|
|-4---------------|---2---4-----4-----|-5-----4-----------|-4-4-----4-------|
|---0---2---3---4-|(4)------------2-0-|---------2-1-0-0-0-|-----0-----------|
  E Q   Q   Q   E   E Q   Q.    E E E   Q.    E E E E E E   E E Q   E E Q
                                 ___             ___
                                | 3 |           | 3 | 
|-----------------|-------------------|-------------------|-----------------|
|-------1---1-----|-------1-----------|-------------------|-----------------|
|-----1---4---4-1-|-----1---4-4-------|-5-----4-----------|-4-4-----4-------|
|-2-2-------------|-2-2---------4-3-2-|---------2-1-0-0-0-|-----0-----------|
  E E E E E E E E   E E E E E E E E E   E E E E E E E E E   E E E E E E Q
                                 ___
                                | 3 |
|-----------------|-------------------|-----------------|-----------------|
|-----------1-----|-------1-----------|-------------4---|-------------4---|
|-----1---4---4-1-|-----1---4-4-------|-----4---7-----7-|-----4---7-----7-|
|-2-2-------------|-2-2---------4-3-2-|-5---------------|-5-----5---------|
  E E Q   E E E E   E E E E E E E E E   Q   Q   Q   E E   Q   E E Q   E E

|-----------------|---------------------|-----------------|-----------------|
|-----------------|---------------------|-------------4---|-5---4-------4---|
|-----------------|---------------------|-----4---7-----7-|---------7-----7-|
|-4-----4-------4-|-4-4-4-----4-4-4-----|-5-----0---------|-----------------|
  E E E E Q.    E   S S E Q   S S E E E   Q   E E Q   E E   Q   Q   Q   E E
                     ___   ___   ___   ___
                    | 3 | | 3 | | 3 | | 3 |
|-----------------|-------------------------|
|-----------------|-------------------------|
|-----------------|-------------2-2-2-3-3-3-|
|-4-----4---------|-4-4-4-6-6-6-------------|
  E Q   E H         E E E E E E E E E E E E
                                 ___             ___                     ___
                                | 3 |           | 3 |                   | 3 |
|-----------------|-------------------|-------------------|-------------------|
|-----------------|-------------------|-------------------|-------------------|
|-4---------------|---2---4-----4-----|-5-----4-----------|-4-4-----4-4-------|
|---0---2---3---4-|(4)------------2-0-|---------2-1-0-0-0-|-----0-0-----3-2-0-|
  E Q   Q   Q   E   E Q   Q.    E E E   Q.    E E E E E E   E E E E E E E E E
                                 ___                                   ___
                                | 3 |                                 | 3 | 
|-----------------|-------------------|-----------------|-------------------|
|-------1---1-----|-------1-----------|-----------------|-------------3-2---|
|-----1---4---4-1-|-----1---4-4-------|-4-4-----4-------|-4-4-----4-------4-|
|-2-2-------------|-2-2---------4-3-2-|-----0-0---------|-----0-------------|
  E E E E E E E E   E E E E E E E E E   E E E E E E Q E   E E Q   E E E E E
                                 ___                  ___
                                | 3 |                | 3 |
|-----------------|-------------------|---------9---11-9----|-----------------|
|-------1---------|-------1---1-------|------------------11-|-----------------|
|-----1---4-------|-----1---4---4-1---|-----4---------------|-4-4-2-1---2-4-1-|
|-2-2-----------2-|-2-2-------------2-|-5-------------------|---------4-------|
  E E E E E E E E   E E E E E E E E E   Q   Q   Q   E  E E    E E E E E E E E

|-----------------|-----------------|-----------------|-----------------|
|-----------------|-----------------|-----------------|-----------------|
|-----1-4-1-----4-|-----1-4-1-----4-|-------4-------4-|-------4-------4-|
|-2-2-------------|-2-2-------------|-6-------6-------|-6-------6-------|
  E E E E Q.    E   E E E E E E E E   E Q   E E Q   E   E Q   E E Q   E

|-----------------|-----------------|-----------------|-----------------|
|-----------------|-----------------|-----------------|-----------------|
|-1---------------|(1)--------------|(1)--------------|(1)--------------|
|-----------------|-----------------|-----------------|-----------------|
  W                 W                 W                 W

|-----------------|-----------------|-----------------|-----------------|
|-----------------|-----------------|-----------------|-----------------|
|---------------1-|-4---------------|(4)--------------|-4---------------|
|-----------------|-----------------|-----------------|-----------------|
  H.          E E   W                 W                 W

|-----------------|-----------------|-----------------|-----------------|
|-----------------|-----------------|-----------------|-----------------|
|(4)--------------|-4---------------|(4)--------------|-4---------------|
|-----------------|-----------------|-----------------|-----------------|
  W                 W                 W                 W

|-----------------||
|-----------------||
|(4)--------------||
|-----------------||
  W


 
Key to rhythm notations:

W - Whole Note/Semi-Brieve
H - Half Note/Minim
Q - Quarter Note/Crotchet       Q. - Dotted Quarter Note
E - Eight Note/Quaver           E. - Dotted Eight Note
S - Sixteenth Note/Semi-Quaver  S. - Dotted Sixteenth Note
   
Добавлено: 14.04.2016
Другие материалы по этой песне:

Страница создана 03.04.2012
http://primanota.ru/prince/temptation-chords.htm
Привет, Гость.
Предлагаем пройти революционный курс по гитаре.
Подарок от PrimaNota.Ru, забирай!