PrimaNota.ru - самый крупный в мире бесплатный архив песенных текстов, аккордов, табулатур и нот


Prince - Head - текст песни, бас-таба, видео

Регистрация Запомнить меня
Войти через:  Facebook Google Twitter Vk Yandex Mail.ru

Prince - Head - текст песни, бас-таба, видео

Печатать
Просмотров: 93
Авторы музыки: Prince
Авторы текста: Prince
                                       Head
                                      Prince

Bass                                                              Prince 

As played by Prince

Intro

                                                              P P P   S
|-----------------|-----------------|-----------------|-------5-5-5h7---|
|-----------------|-----------------|-----------------|-----------------|
|-----------------|-----------------|-----------------|---------------7-|
|-5\--------------|-----------------|-5\--------------|-----------------|
  Q   H.            W                 Q   H.            H     E E S S E

                  P                                   P
||----------------4/|-5---------------|---------------4/|-5----------------||
||o-------5-7-------|-------5-7-------|-------5-7-------|-------5-7-------o||
||o-----------------|-----------------|-----------------|-----------------o||
||--5\--------------|-----------------|-5\--------------|------------------||
    Q.    E E Q S S   E Q   E E Q.      Q.    E E Q S S   E Q   E E Q.

Verse 1
                P                                   P 
|---------------4/|-5---------------|---------------4/|-5---------------|
|-------5-7-------|-------5-7-------|-------5-7-------|-------5-7-------|
|-----------------|-----------------|-----------------|-----------------|
|-5\--------------|-----------------|-5\--------------|-----------------|
  Q.    E E Q S S   E Q   E E Q.      Q.    E E Q S S   E Q   E E Q.

                P                                   P       P   S P   S
|---------------4/|-5---------------|---------------4/|-5---------------|
|-------5-7-------|-------5-7-------|-------5-7-------|-----5p2---5p2---|
|-----------------|-----------------|-----------------|-----------------|
|-5\--------------|-----------------|-5\--------------|---------0-----0-|
  Q.    E E Q S S   E Q   E E Q.      Q.    E E Q S S   E Q.S S E S S E

                  P                                   P
||----------------4/|-5---------------|---------------4/|-5----------------||
||o-------5-7-------|-------5-7-------|-------5-7-------|-------5-7-------o||
||o-----------------|-----------------|-----------------|-----------------o||
||--5\--------------|-----------------|-5\--------------|------------------||
    Q.    E E Q S S   E Q   E E Q.      Q.    E E Q S S   E Q   E E Q.

                P                                   P       S     S P   S
|---------------4/|-5---------------|---------------4/|-5-----------7p5---|
|-------5-7-------|-------5-7-------|-------5---------|-------------------|
|-----------------|-----------------|-----------------|-----5h6h7---------|
|-5\--------------|-----------------|-5\--------------|-----------0-----0-|
  Q.    E E Q S S   E Q   E E Q.      Q.    E E Q S S   E E E E E E S S E

Chorus 1

                P                                   P 
|---------------4/|-5---------------|---------------4/|-5-----------------|
|-------5-7-------|-------5-7-------|-------5-7-------|-------5-7---------|
|-----------------|-----------------|-----------------|-------------5h7---|
|-5\--------------|-----------------|-5\--------------|-----------------0-|
  Q.    E E Q S S   E Q   E E Q.      Q.    E E Q S S   E Q   E E S S E E

                P                                   P       S P   S P   S
|---------------4/|-5-----------------|---------------4/|-5-----------------|
|-------5-7-------|-------5-7---------|-------5-7-------|-------5p2---5p2---|
|-----------------|-------------5h7---|-----------------|-------------------|
|-5\--------------|-----------------0-|-5\--------------|-----3-----0-----0-|
  Q.    E E Q S S   E Q   E E S S E E   Q.    E E Q S S   E Q E S S E S S E

Interlude 1

                P                                   P
|---------------4/|-5---------------|---------------4/|-5---------------|
|-------5-7-------|-------5-7-------|-------5-7-------|-------5-7-------|
|-----------------|-----------------|-----------------|-----------------|
|-5\--------------|-----------------|-5\--------------|-----------------|
  Q.    E E Q S S   E Q   E E Q.      Q.    E E Q S S   E Q   E E Q.

                                                              P P P   S
|-----------------|-----------------|-----------------|-------5-5-5h7---|
|-----------------|-----------------|-7\--------------|-----------------|
|-----------------|-----------------|-----------------|---------------7-|
|-5\--------------|-----------------|-----------------|-----------------|
  Q   H.            W                 Q   H.            H     E E S S E

Verse 2
                P                                   P
|---------------4/|-5---------------|---------------4/|-5---------------|
|-------5-7-------|-------5-7-------|-------5-7-------|-------5-7-------|
|-----------------|-----------------|-----------------|-----------------|
|-5\--------------|-----------------|-5\--------------|-----------------|
  Q.    E E Q S S   E Q   E E Q.      Q.    E E Q S S   E Q   E E Q.

                P                                   P         P   S P   S
|---------------4/|-5---------------|---------------4/|-5-----------------|
|-------5-7-------|-------5-7-------|-------5-7-------|-------5p2---5p2---|
|-----------------|-----------------|-----------------|-------------------|
|-5\--------------|-----------------|-5\--------------|-----3-----0-----0-|
  Q.    E E Q S S   E Q   E E Q.      Q.    E E Q S S   E Q E S S E S S E

                P                                   P
|---------------4/|-5---------------|---------------4/|-5---------------|
|-------5-7-------|-------5-7-------|-------5-7-------|-------5-7-------|
|-----------------|-----------------|-----------------|-----------------|
|-5\--------------|-----------------|-5\--------------|-----------------|
  Q.    E E Q S S   E Q   E E Q.      Q.    E E Q S S   E Q   E E Q.

                P                                   P
|---------------4/|-5---------------|-----------------|-----------------|
|-------5-7-------|-------5-7-------|-------5-7-------|-----------------|
|-----------------|-----------------|---------------2-|-4-4-5-5-7-5-----|
|-5\--------------|-----------------|-5\--------------|-------------0---|
  Q.    E E Q S S   E Q   E E Q.      Q.    E E Q S S   E E E E E E Q

Chorus 2

                P                                   P
|---------------4/|-5---------------|---------------4/|-5---------------|
|-------5-7-------|-------5-7-------|-------5-7-------|-------5-7-------|
|-----------------|-----------------|-----------------|-----------------|
|-5\--------------|-----------------|-5\--------------|-----------------|
    Q.    E E Q S S   E Q   E E Q.      Q.    E E Q S S   E Q   E E Q.

                P                                   P     S S S S S   S   S
|---------------4/|-5---------------|---------------4/|---------------------|
|-------5-7-------|-------5-7-------|-------5-7-------|---------------------|
|-----------------|-----------------|-----------------|---------------------|
|-5\--------------|-----------------|-5\--------------|---0-0-0-0-0p2p3h2-0-|
  Q.    E E Q S S   E Q   E E Q.      Q.    E E Q S S   E E S S E E E S S E

Interlude 2

                P                                   P
|---------------4/|-5---------------|---------------4/|-5---------------|
|-------5-7-------|-------5-7-------|-------5-7-------|-------5-7-------|
|-----------------|-----------------|-----------------|-----------------|
|-5\--------------|-----------------|-5\--------------|-----------------|
  Q.    E E Q S S   E Q   E E Q.      Q.    E E Q S S   E Q   E E Q.

                                                              P P P   S
|-----------------|-----------------|-----------------|-------5-5-5h7---|
|-7\5-------------|-----------------|-----------------|-----------------|
|-----------------|-----------------|-----------------|---------------7-|
|-----------------|-----------------|-5\--------------|-----------------|
  E E H.            W                 Q   H.            H     E E S S E

Chorus 3

                P                                   P
|---------------4/|-5---------------|---------------4/|-5---------------|
|-------5-7-------|-------5-7-------|-------5-7-------|-------5-7-------|
|-----------------|-----------------|-----------------|-----------------|
|-5\--------------|-----------------|-5\--------------|-----------------|
    Q.    E E Q S S   E Q   E E Q.      Q.    E E Q S S   E Q   E E Q.

                P                                   P     S S S S S   S   S
|---------------4/|-5---------------|---------------4/|---------------------|
|-------5-7-------|-------5-7-------|-------5-7-------|---------------------|
|-----------------|-----------------|-----------------|---------------------|
|-5\--------------|-----------------|-5\--------------|---0-0-0-0-0p2p3h2-0-|
  Q.    E E Q S S   E Q   E E Q.      Q.    E E Q S S   E E S S E E E S S E

Solo

                P                                   P
|---------------4/|-5---------------|---------------4/|-5---------------|
|-------5-7-------|-------5-7-------|-------5-7-------|-------5-7-------|
|-----------------|-----------------|-----------------|-----------------|
|-5\--------------|-----------------|-5\--------------|-----------------|
  Q.    E E Q S S   E Q   E E Q.      Q.    E E Q S S   E Q   E E Q.

                P                                   P         P   S P   S
|---------------4/|-5---------------|---------------4/|-5-----------------|
|-------5-7-------|-------5-7-------|-------5-7-------|-------5p2---5p2---|
|-----------------|-----------------|-----------------|-------------------|
|-5\--------------|-----------------|-5\--------------|-----3-----0-----0-|
  Q.    E E Q S S   E Q   E E Q.      Q.    E E Q S S   E Q E S S E S S E

                  P                                   P
|---------------4/|-5---------------|---------------4/|-5---------------|
|-------5-7-------|-------5-7-------|-------5-7-------|-------5-7-------|
|-----------------|-----------------|-----------------|-----------------|
|-5\--------------|-----------------|-5\--------------|-----------------|
  Q.    E E Q S S   E Q   E E Q.      Q.    E E Q S S   E Q   E E Q.

                  P                                   P
|-7\5-----------4/|-5---------------|---------------4/|-5---------------|
|-7\5---5-7-------|-------5-7-------|-------5-7-------|-------5-7-------|
|-----------------|-----------------|-----------------|-----------------|
|-----------------|-----------------|-5\--------------|-----------------|
  E E E E E Q S S   E Q   E E Q.      Q.    E E Q S S   E Q   E E Q.

                P                                   P
|---------------4/|-5---------------|---------------4/|-5-----------------|
|-------5-7-------|-------5-7-------|-------5-7-------|-------5-----------|
|-----------------|-----------------|-----------------|-------------------|
|-5\--------------|-----------------|-5\--------------|---------0-3-3-3-0-|
  Q.    E E Q S S   E Q   E E Q.      Q.    E E Q S S   E Q   E E E S S E

                P                                   P
|---------------4/|-5---------------|---------------4/|-5---------------|
|-------5-7-------|-------5-7-------|-------5-7-------|---------5-5-5-7-|
|-----------------|-----------------|-----------------|-----5-7---------|
|-5\--------------|-----------------|-5\--------------|-----------------|
  Q.    E E Q S S   E Q   E E Q.      Q.    E E Q S S   E E E E E E S E.

Chorus 3

|-----------------|--------------|-----------------|
|-----------------|--- 6 Bars ---|-----------------|
|-----------------|---  Rest  ---|-7\--------------|
|-5\--------------|--------------|---------5\------|
  W                                H       H

                P                                   P
|---------------4/|-5---------------|---------------4/|-5---------------|
|-------5-7-------|-------5-7-------|-------5-7-------|-------5-7-------|
|-----------------|-----------------|-----------------|-----------------|
|-5\--------------|-----------------|-5\--------------|-----------------|
  Q.    E E Q S S   E Q   E E Q.      Q.    E E Q S S   E Q   E E Q.

                P                                   P       P   S P   S
|---------------4/|-5---------------|---------------4/|-5---------------|
|-------5-7-------|-------5-7-------|-------5-7-------|-----5p2---5p2---|
|-----------------|-----------------|-----------------|-----------------|
|-5\--------------|-----------------|-5\--------------|---------0-----0-|
  Q.    E E Q S S   E Q   E E Q.      Q.    E E Q S S   E Q.S S E S S E

                P                                   P
|---------------4/|-5---------------|---------------4/|-5-----------------|
|-------5-7-------|-------5-7-------|-------5-7-------|-------5-7---------|
|-----------------|-----------------|-----------------|-------------------|
|-5\--------------|-----------------|-5\--------------|-----------0/3-0---|
  Q.    E E Q S S   E Q   E E Q.      Q.    E E Q S S   E Q   E E S S Q

                P                                   P         P   S P   S
|---------------4/|-5---------------|---------------4/|-5-----------------|
|-------5-7-------|-------5-7-------|-------5-7-------|-------5p2---5p2---|
|-----------------|-----------------|-----------------|-------------------|
|-5\--------------|-----------------|-5\--------------|-----3-----0-----0-|
  Q.    E E Q S S   E Q   E E Q.      Q.    E E Q S S   E Q E S S E S S E

|-----------------||
|-----------------||
|-----------------||
|-5\--------------||
  E E H.

Key to rhythm notations:

W - Whole Note/Semi-Brieve
H - Half Note/Minim
Q - Quarter Note/Crotchet       Q. - Dotted Quarter Note
E - Eight Note/Quaver           E. - Dotted Eight Note
S - Sixteenth Note/Semi-Quaver  S. - Dotted Sixteenth Note
Добавлено: 14.04.2016
Другие материалы по этой песне:
  • Аккорды и текст

Страница создана 24.06.2012
http://primanota.ru/prince/head-chords.htm
Привет, Гость.
Предлагаем пройти революционный курс по гитаре.
Подарок от PrimaNota.Ru, забирай!