PrimaNota.ru - самый крупный в мире бесплатный архив песенных текстов, аккордов, табулатур и нот


Prince - God - текст песни, таба, видео

Регистрация Запомнить меня
Войти через:  Facebook Google Twitter Vk Yandex Mail.ru

Prince - God - текст песни, таба, видео

Печатать
Просмотров: 121
from: Michael Medina mmedina_5430@msn.com
song:GOD
This song is featured in the Purple Rain movie
as a love song instrumental (sex scene W/Apollonia)
it's fairly simple and sounds good W/heavy distortion
over a clean guitar W/chorus effects.
chords:
 Fsus2    G/F    Em7    Am7/E   Dm7sus4  Gsus4/D      C
E--3-------3------3-------3-------3-------3-----------1------
B--1-------3------3-------1-------1-------1-----------0------
G--x-------4------4-------2-------2-------0-----------2------
D--3-------3------2-------2-------0-------x-----------3------
A--x-------x------x-------x--------x-------x-----------x------
E--x-------x------x-------x--------x-------x-----------x------

solo:
E-3-3-3-3h5p3\1---1-1-1-1h3\1-------------------------------------
B-------------------------------3/5--5-5-5h6p5-3--3-3-3-3h5p3-----
G---------------------------------------------------------------/5--
D-------------------------------------------------------------------
A-------------------------------------------------------------------
E-------------------------------------------------------------------
 
 
E-3-3-3-10b-10b-10b-10b-10--3-3-3-10b-10b-10b-10b-10------
B--------------------------------------------------------------
G--------------------------------------------------------------
D--------------------------------------------------------------
A--------------------------------------------------------------
E--------------------------------------------------------------
 
 
E-10b-(10)-8-10--------------------10b-(10)-8-----------------
B---------------------------------------------10---------------
G----------------------7-7/9\7---------------------------------
D----------------10-10---------10-----------------5/7\5-------
A--------------------------------------------------------------
E--------------------------------------------------------------
listen for the changes, get u a friend and play it as a duet.
have fun ! Michael.
     
Добавлено: 30.06.2013
Другие материалы по этой песне:

Страница создана 30.05.2012
http://primanota.ru/prince/god-chords.htm
Привет, Гость.
Предлагаем пройти революционный курс по гитаре.
Подарок от PrimaNota.Ru, забирай!