PrimaNota.ru - самый крупный в мире бесплатный архив песенных текстов, аккордов, табулатур и нот


Prince - U Got The Look - текст песни, бас-таба, видео

Регистрация Запомнить меня
Войти через:  Facebook Google Twitter Vk Yandex Mail.ru

Prince - U Got The Look - текст песни, бас-таба, видео

Печатать
Просмотров: 73
Авторы музыки: Prince
Авторы текста: Prince
                                  U Got The Look
                                      Prince

Bass                                                              Prince 

As played by Prince

Note: recorded version is 30 cents sharp - tune up to be in tune with
the record.

Intro

|-----------------|-----------------|-----------------|-----------------|
|-----------------|-----------------|-----------------|-----------------|
|---1-------1---1-|-1--1------------|---1-------1---1-|-1--1------------|
|-----------------|-----------------|-----------------|-----------------|
  E E Q   E E E E   E. E.E H          E E Q   E E E E   E. E.E H        

|-----------------|-----------------|-----------------|-----------------|
|---1-------1---1-|-1--1------------|-----------------|-----------------|
|-----------------|-----------------|---1-------1---1-|-1--1------------|
|-----------------|-----------------|-----------------|-----------------|
  E E Q   E E E E   E. E.E H          E E Q   E E E E   E. E.E H        

|-----------------|-----------------|-----------------|-----------------|
|---3-------3---3-|-3--3------------|-----------------|-----------------|
|-----------------|-----------------|---1-------1---1-|-1--1------------|
|-----------------|-----------------|-----------------|-----------------|
  E E Q   E E E E   E. E.E H          E E Q   E E E E   E. E.E H     

Verse 1 (Same as Intro)

|-----------------|-----------------|-----------------|-----------------|
|-----------------|-----------------|-----------------|-----------------|
|---1-------1---1-|-1--1------------|---1-------1---1-|-1--1------------|
|-----------------|-----------------|-----------------|-----------------|
  E E Q   E E E E   E. E.E H          E E Q   E E E E   E. E.E H        

|-----------------|-----------------|-----------------|-----------------|
|---1-------1---1-|-1--1------------|-----------------|-----------------|
|-----------------|-----------------|---1-------1---1-|-1--1------------|
|-----------------|-----------------|-----------------|-----------------|
  E E Q   E E E E   E. E.E H          E E Q   E E E E   E. E.E H        

|-----------------|-----------------|-----------------|-----------------|
|---3-------3---3-|-3--3------------|-----------------|-----------------|
|-----------------|-----------------|---1-------1---1-|-1--1------------|
|-----------------|-----------------|-----------------|-----------------|
  E E Q   E E E E   E. E.E H          E E Q   E E E E   E. E.E H     

Chorus 1

|-----------------|-----------------|-----------------|-----------------|
|-----------------|-----------------|-----------------|-----------------|
|---1-------1---1-|-1--1------------|---1-------1---1-|-1--1------------|
|-----------------|-----------------|-----------------|-----------------|
  E E Q   E E E E   E. E.E H          E E Q   E E E E   E. E.E H        

|-----------------|-----------------|-----------------|-----------------|
|---1-------1---1-|-1--1------------|-----------------|-----------------|
|-----------------|-----------------|---1-------1---1-|-1--1------------|
|-----------------|-----------------|-----------------|-----------------|
  E E Q   E E E E   E. E.E H          E E Q   E E E E   E. E.E H        

|-----------------|-----------------|-----------------|-----------------|
|---3-------3--3--|-3--3------------|-----------------|-----------------|
|-----------------|-----------------|---1-------1---1-|-1--1------------|
|-----------------|-----------------|-----------------|-----------1-4-1-|
  E E Q   E E. E.   E. E.E H          E E Q   E E E E   E. E. E E E E E

Verse 2

|-----------------|-----------------|-----------------|-----------------|
|-----------------|-----------------|-----------------|-----------------|
|---1-------1---1-|-1--1------------|---1-------1---1-|-1--1------------|
|-----------------|-----------------|-----------------|-----------------|
  E E Q   E E E E   E. E.E H          E E Q   E E E E   E. E.E H        

|-----------------|-----------------|-----------------|-----------------|
|---1-------1--1--|-1--1------------|-----------------|-----------------|
|-----------------|-----------------|---1-------1---1-|-1--1------------|
|-----------------|-----------------|-----------------|-----------------|
  E E Q   E E. E.   E. E.E H          E E Q   E E E E   E. E.E H        

|-----------------|-----------------|-----------------|-----------------|
|---3-------3---3-|-3--3------------|-----------------|-----------------|
|-----------------|-----------------|---1-------1---1-|-1--1------------|
|-----------------|-----------------|-----------------|-----------------|
  E E Q   E E E E   E. E.E H          E E Q   E E E E   E. E.E H   

Chorus 2

|-----------------|-----------------|-----------------|-----------------|
|-----------------|-----------------|-----------------|-----------------|
|---1-------1---1-|-1--1------------|---1-------1---1-|-1--1------------|
|-----------------|-----------------|-----------------|-----------------|
  E E Q   E E E E   E. E.E H          E E Q   E E E E   E. E.E H        

|-----------------|-----------------|-----------------|-----------------|
|---1-------1---1-|-1--1------------|-----------------|-----------------|
|-----------------|-----------------|---1-------1---1-|-1--1------------|
|-----------------|-----------------|-----------------|-----------------|
  E E Q   E E E E   E. E.E H          E E Q   E E E E   E. E.E H        

|-----------------|-----------------|-----------------|-----------------|
|---3-------3--3--|-3--3------------|-----------------|-----------------|
|-----------------|-----------------|---1-------1---1-|-1--1------------|
|-----------------|-----------------|-----------------|-----------------|
  E E Q   E E. E.   E. E.E H          E E Q   E E E E   E. E. E H

Bridge

|-----------------|-----------------|-----------------|-----------------|
|-----------------|-----------------|-----------------|-----------------|
|-----------------|-----------------|-----------------|---1-------1---1-|
|-----------------|-----------------|-----------------|-----------------|
  W                 W                 W                 E E Q   E E E E

|-----------------|-----------------|-----------------|-----------------|
|-----------------|-----------------|-----------------|---3-------------|
|---------2-------|-1-------0-------|-----------------|-----------------|
|-2---------------|-----------------|-4--4----3-------|-----------------|
  H       H         H       H         E. E. E H         E E Q   H

Verse 3
         ___   ___
        | 3 | | 3 |
|-------------------|-----------------|-----------------|-----------------|
|-------4-3-1-------|-----------------|-----------------|-----------------|
|-------------4---3-|------1----------|---1-------1---1-|-1--1------------|
|-------------------|-----------------|-----------------|-----------------|
  H     E E E Q   E   Q  S E S H        E E Q   E E E E   E. E.E H        

|-----------------|-----------------|-----------------|-----------------|
|---1-------1--1--|-1--1------------|-----------------|-----------------|
|-----------------|-----------------|---1-------1---1-|-1--1------------|
|-----------------|-----------------|-----------------|-----------------|
  E E Q   E E. E.   E. E.E H          E E Q   E E E E   E. E.E H        

|-----------------|-----------------|-----------------|-----------------|
|---3-------3--3--|-3--3------------|-----------------|---------3-1-3-1-|
|-----------------|-----------------|---1-------1---1-|-1---------------|
|-----------------|-----------------|-----------------|-----------------|
  E E Q   E E. E.   E. E.E H          E E Q   E E E E   E E Q   E E E E

Chorus 3

|-----------------|-----------------|-----------------|-----------------|
|-----------------|-----------------|-----------------|-----------------|
|---1-------1---1-|-1--1------------|---1-------1---1-|-1--1--------3-5-|
|-----------------|-----------------|-----------------|-----------------|
  E E Q   E E E E   E. E.E H          E E Q   E E E E   E. E.E  Q   E E

|-----------------|-----------------|-----------------|-----------------|
|---1-------1---1-|-1--1------------|-----------------|-----------------|
|-----------------|-----------------|---1-------1---1-|-1--1------------|
|-----------------|-----------------|-----------------|-----------------|
  E E Q   E E E E   E. E.E H          E E Q   E E E E   E. E.E H        

|-----------------|-----------------|-----------------|-----------------|
|---3-------3--3--|-3--3------------|-----------------|-----------------|
|-----------------|-----------------|---1-------1---1-|-1---------1-----|
|-----------------|-----------------|-----------------|-----------------|
  E E Q   E E. E.   E. E.E H          E E Q   E E E E   E E Q   E E Q

Outro

|-----------------|-----------------|-----------------|-----------------|
|-----------------|-----------------|-----------------|-----------------|
|---1-------1---1-|-1--1------------|---1-------1---1-|-1--1------------|
|-----------------|-----------------|-----------------|-----------------|
  E E Q   E E E E   E. E.E H          E E Q   E E E E   E. E.E H        

|-----------------|-----------------|-----------------|-----------------|
|---1-------1---1-|-1--1------------|-----------------|-----------------|
|-----------------|-----------------|---1-------1---1-|-1--1------------|
|-----------------|-----------------|-----------------|-----------------|
  E E Q   E E E E   E. E.E H          E E Q   E E E E   E. E.E H        

|-----------------|-----------------|-----------------|-------------------|
|---3-------3---3-|-3--3------------|-----------------|---------3-3-3-2---|
|-----------------|-----------------|---1-------1---1-|-1--1--------------|
|-----------------|-----------------|-----------------|-------------------|
  E E Q   E E E E   E. E.E H          E E Q   E E E E   E. E.E  S S S S Q    

|-----------------|-----------------|-5-----5-6-3-----|-----------------|
|-------1---------|-------3---------|-----------------|-----------------|
|---------3-------|---------4-------|-----------------|-----------------|
|-----------------|-----------------|-----------------|-----------------|
  Q.    E Q   Q     Q.    E Q   Q     Q.    S S Q   Q
   _____             _____
  |  3  |           |  3  |
|-3---------------|-6--3------------|-5-----5-6-3-----|-----------------||
|----5------------|-------3-6-------|-----------------|-----------------||
|-------6-3-------|-----------------|-----------------|-----------------||
|-----------------|-----------------|-----------------|-----------------||
  Q  Q  Q Q   Q     Q  Q  Q Q   Q     Q.    S S Q   Q


Key to rhythm notations:

W - Whole Note/Semi-Brieve
H - Half Note/Minim
Q - Quarter Note/Crotchet       Q. - Dotted Quarter Note
E - Eight Note/Quaver           E. - Dotted Eight Note
S - Sixteenth Note/Semi-Quaver  S. - Dotted Sixteenth Note
Добавлено: 14.04.2016
Другие материалы по этой песне:

Страница создана 26.02.2012
http://primanota.ru/prince/u-got-the-look-chords.htm
Привет, Гость.
Предлагаем пройти революционный курс по гитаре.
Подарок от PrimaNota.Ru, забирай!