PrimaNota.ru - самый крупный в мире бесплатный архив песенных текстов, аккордов, табулатур и нот


Prince - It's Gonna be a Beautiful Night - текст песни, бас-таба, видео

Регистрация Запомнить меня
Войти через:  Facebook Google Twitter Vk Yandex Mail.ru

Prince - It's Gonna be a Beautiful Night - текст песни, бас-таба, видео

Печатать
Просмотров: 78
Авторы музыки: Prince, Doctor Fink, Eric Leeds
Авторы текста: Prince
                                 It's Gonna Be A
                                 Beautiful Night
                                      Prince

Bass                                                              Prince 
                                                              Eric Leeds
                                                               Matt Fink

As played by Mark Brown

Intro

16 Bars Rest

|-------------------|-------------------|-------------------|---------------------|
|-------------------|-------------------|-------------------|---------------3-----|
|-5---5---5-------3-|-5---5---5---x---x-|-5---5---5-------3-|-5---5---5-------5-3-|
|-------x-----3-----|-------x-----------|-------x-----3-----|-------x-------------|
  E S S E E E Q   E   E S S E E E E E E   E S S E E E Q   E   E S S E E Q   S S E

|-------------------|-------------------|-------------------|---------------------|
|-------------------|-------------------|-------------------|---------------3-----|
|-5---5---5-------3-|-5---5---5---------|-5---5---5-------3-|-5---5---5-------5-3-|
|-------x-----3-----|-------x-----3-----|-------x-----3-----|-------x-------------|
  E S S E E E Q   E   E S S E E E Q.      E S S E E E Q   E   E S S E E Q   S S E

Verse 1 (It's Gonna Be A Beautiful...)

|-------------------|-------------------|-------------------|-------------------|
|-------------------|-------------------|-------------------|-------------------|
|-5---5---5-------3-|-5---5---5-------4-|-5---5---5-------3-|-5---5---5-------4-|
|-------x-----3-----|-------x-----------|-------x-----3-----|-------x-----------|
  E S S E E E Q   E   E S S E E E E E E   E S S E E E Q   E   E S S E E E E E E 

|-------------------|-------------------|-------------------|---------------------|
|-------------------|-------------------|-------------------|---------------3-----|
|-5---5---5-------3-|-5---5---5-------4-|-5---5---5-------3-|-5---5---5-------5-3-|
|-------x-----3-----|-------x-----------|-------x-----3-----|-------x-------------|
  E S S E E E Q   E   E S S E E E E E E   E S S E E E Q   E   E S S E E Q   S S E

Chorus 1 (Oh We Oh...)

|-------------------|-------------------|-------------------|---------------------|
|-------------------|-------------------|-------------------|---------------3-----|
|-5---5---5-------3-|-5---5---5-------4-|-5---5---5-------3-|-5---5---5-------5-3-|
|-------x-----3-----|-------x-----------|-------x-----3-----|-------x-------------|
  E S S E E E Q   E   E S S E E E E E E   E S S E E E Q   E   E S S E E Q   S S E

|-------------------|-------------------|-------------------|---------------------|
|-------------------|-------------------|-------------------|---------------3-----|
|-5---5---5-------3-|-5---5---5-------4-|-5---5---5-------3-|-5---5---5-------5-3-|
|-------x-----3-----|-------x-----------|-------x-----3-----|-------x-------------|
  E S S E E E Q   E   E S S E E E E E E   E S S E E E Q   E   E S S E E Q   S S E

Verse 2 (Little boy got the notion...)

|-------------------|-------------------|-------------------|-------------------|
|-------------------|-------------------|-------------------|-------------------|
|-5---5---5-------3-|-5---5---5-------4-|-5---5---5-------3-|-5---5---5-------4-|
|-------x-----3-----|-------x-----------|-------x-----3-----|-------x-----------|
  E S S E E E Q   E   E S S E E E E E E   E S S E E E Q   E   E S S E E E E E E


|-------------------|-----------------------|---------------------|-----------------|
|-------------------|---------------3-------|-------------5-7-7-9-|-9-7-5-7-9-7-----|
|-5---5---5-------3-|-5---5---5-------5-3-x-|-5---5---5-7---------|-----------------|
|-------x-----3-----|-------x---------------|-------x-------------|-----------------|
  E S S E E E Q   E   E S S E E Q   S S S S   E S S E E S S E E E   E E E E E Q.

Chorus 2 (Oh we oh...)

|-------------------|-------------------|-------------------|-------------------|
|-------------------|-------------------|-------------------|-------------------|
|-5---5---5-------3-|-5-5---5-x-----5-4-|-5---5---5-------3-|-5---5---5-----5-4-|
|-------x-----3-----|-----x-------3-----|-------x-----3-----|-------x-----3-----|
  E S S E E E Q   E   E S S E E E E.S E   E S S E E E Q   E   E S S E E E E.S E

|-------------------|-------------------|-------------------|-------------------|
|-------------------|-------------------|-------------------|-------------------|
|-5---5---5-------3-|-5-5---5-x---------|-5---5---5-------3-|-5---5---5---3-x-x-|
|-------x-----3-----|-----x-------3-----|-------x-----3-----|-------x-----------|
  E S S E E E Q   E   E S S E E E Q.      E S S E E E Q   E   E S S E E E E.S E

Break 1

|-----------------|-----------------|-----------------|-----------------|
|-----------------|-----------------|-----------------|-----------------|
|-5---------------|-----------------|-----------------|-----------------|
|-----------------|-----------------|-----------------|-----------------|
  Q   Q   H         W                 W                 W               

Verse 3 (They say there ain't nothing better...)

|-------------------|-------------------|-------------------|-------------------|
|-------------------|-------------------|-------------------|-------------------|
|-5---5---5-------3-|-5---5---5-----5-4-|-5---5---5-------3-|-5---5---5-----5-4-|
|-------x-----3-----|-------x-----3-----|-------x-----3-----|-------x-----3-----|
  E S S E E E Q   E   E S S E E E E.S E   E S S E E E Q   E   E S S E E E E.S E

|-------------------|-------------------|-------------------|-------------------|
|-------------------|-------------------|-------------------|---------9-7---7-9-|
|-5---5---5-------3-|-5---5---5-------4-|-5---5---5-------3-|-5---6-9-----9-----|
|-------x-----3-----|-------x-----3-----|-------x-----3-----|-------------------|
  E S S E E E Q   E   E S S E E E Q   E   E S S E E E Q   E   E E S E E.S S E E

Chorus 3 (It's gonna be a beautiful

|-4-----x-3---2-3---|-------------------|-------------------|-------------------|
|-------------------|-------------------|-------------------|-------------------|
|-------------------|-5---5---5-----5-4-|-5---5---5-------3-|-5---5---5-------4-|
|-------------------|-------x-----3-----|-------x-----3-----|-------x-----------|
  E E S S Q   E E E   E S S E E E E.S E   E S S E E E Q   E   E S S E E E Q   E

|-------------------|---------------------|-------------------|-5-5-4-4-2-4---2-|
|-------------------|---------------3-----|-------------------|-----------------|
|-5---5---5-------3-|-5---5---5-------5-3-|-5---5---5-------3-|-----------------|
|-------x-----3-----|-------x-------------|-------x-----3-----|-----------------|
  E S S E E E Q   E   E S S E E Q   S S E   E S S E E E Q   E   E E E E E Q   E

Verse 4 (No time for parties...)

|-------------------|---------------------|-------------------|---------------------|
|-------------------|---------------3-----|-------------------|---------------3-----|
|-5---5---5-------3-|-5---5---5-------5-3-|-5---5---5-------3-|-5---5---5-------5-3-|
|-------x-----3-----|-------x-------------|-------x-----3-----|-------x-------------|
  E S S E E E Q   E   E S S E E Q   S S E   E S S E E E Q   E   E S S E E Q   S S E

|-------------------|---------------------|-------------------|-------------------|
|-------------------|---------------3-----|-------------------|---------------5-7-|
|-5---5---5-------3-|-5---5---5-------5-3-|-5---5---5-------3-|-5---5---5---8-----|
|-------x-----3-----|-------x-------------|-------x-----3-----|-------x-----------|
  E S S E E E Q   E   E S S E E Q   S S E   E S S E E E Q   E   E S S E E E E E E

Chorus 4 (Oh we oh...)

|-------------------|---------------------|-------------------|---------------------|
|-------------------|---------------3-----|-------------------|---------------3-----|
|-5---5---5-------3-|-5---5---5-------5-3-|-5---5---5-------3-|-5---5---5-------5-3-|
|-------x-----3-----|-------x-------------|-------x-----3-----|-------x-------------|
  E S S E E E Q   E   E S S E E Q   S S E   E S S E E E Q   E   E S S E E Q   S S E

|-------------------|---------------------|---------------------|------------------------|
|-------------------|-------------3-------|-------------3-------|-------------3-3-3-3----|
|-5---5---5-------3-|-5---5---5-----5-3-3-|-5---5---5-----5-3-3-|-5---5---5----------5-3-|
|-------x-----3-----|-------x-------------|-------x-------------|-------x----------------|
  E S S E E E Q   E   E S S E E Q S S S S   E S S E E Q S S S S   E S S E E Q S S S S S S

Verse 5 (We are beauitful...)

|-------------------|-------------------|-------------------|---------------------|
|-------------------|-------------------|-------------------|---------------3-----|
|-5---5---5-------3-|-5---5---5---------|-5---5---5-------3-|-5---5---5-------5-3-|
|-------x-----3-----|-------x-----------|-------x-----3-----|-------x-------------|
  E S S E E E Q   E   E S S E E Q   Q     E S S E E E Q   E   E S S E E Q   S S E

|-------------------|---------------------|-------------------|-------------------|
|-------------------|---------------3-----|-------------------|---------------3-3-|
|-5---5---5-------3-|-5---5---5-------5-3-|-5---5---5-------3-|-5---5---5---------|
|-------x-----3-----|-------x-------------|-------x-----3-----|-------x-----3-----|
  E S S E E E Q   E   E S S E E Q   S S E   E S S E E E Q   E   E S S E E E E E E

|-------------------|-------------------|-------------------|---------------------|
|-------------------|-------------------|-------------------|---------------3-----|
|-5---5---5-------3-|-5---5---5-------4-|-5---5---5-------3-|-5---5---5-------5-3-|
|-------x-----3-----|-------x-----------|-------x-----3-----|-------x-------------|
  E S S E E E Q   E   E S S E E Q   E E   E S S E E E Q   E   E S S E E Q   S S E

|-------------------|-------------------|-------------------|--------------------|
|-------------------|-------------------|-------------------|--------------------|
|-5---5---5-------3-|-5---5---5-------4-|-5---5---5-------3-|-5---5---5---5/12\5-|
|-------x-----3-----|-------x-----------|-------x-----3-----|-------x------------|
  E S S E E E Q   E   E S S E E Q   E E   E S S E E E Q   E   E S S E E E E E  E

Chorus 5 (Oh we oh...)

|---------------------|-----------------|-------------------|---------------------|
|---------------------|-----------------|-------------------|---------------3-----|
|-5---3-3-3---3-3-5-4-|-5-----5-----5-4-|-5---5---5-------3-|-5---5---5-------5-3-|
|-----------5---------|-----------3-----|-------x-----3-----|-------x-------------|
  E E S S E E S S E E   Q.    E E E.S E   E S S E E E Q   E   E S S E E Q   S S E

|-------------------|---------------------|-------------------|---------------------|
|-------------------|---------------x-----|-------------------|---------------3-----|
|-5---5---5-------3-|-5---5---5-------3-3-|-5---5---5-------3-|-5---5---5-------5-3-|
|-------x-----3-----|-------x-------------|-------x-----3-----|-------x-----3-------|
  E S S E E E Q   E   E S S E E Q   S S E   E S S E E E Q   E   E S S E E E E S S E

Break 2

|--------------|
|--- 16 Bar ---|
|---  Rest  ---|
|--------------|

|-----------------|-----------------|-----------------|-----------------|
|-----------------|-----------------|-----------------|-----------------|
|-5---5-----------|-----------------|-5---------------|-----------------|
|-----------------|-----------------|-----------------|-----------------|
  Q   Q   H         W                 Q   Q   H         W

|-----------------|-----------------|-----------------|-----------------|
|-----------------|-----------------|-----------------|-----------------|
|-5---5-----------|-----------------|-5---------------|-----------------|
|-----------------|-----------------|-----------------|-----------------|
  Q   Q   H         W                 Q   Q   H         W

|-------------------|---------------------------|-------------|-------------|
|-------------------|---------------------------|-------------|-------------|
|---5-----2-3-4-5---|---5-3-0-3-0---0---2-3-4-5-|(5)----------|-------------|
|-------------------|---------------------------|-------------|-------------|
  E E Q   S S S E E.  S S S S S S S S Q S S S S   S E.Q  H      W

|-------------------|---------------------------|-------------|-------------|
|-------------------|---3-----------------------|-------------|-------------|
|---5-----2-3-4-5---|-----5-3-5-3---3---2-3-4-5-|(5)----------|-------------|
|-------------------|---------------------------|-------------|-------------|
  E E Q   S S S E E.  S S S S S S S S Q S S S S   S E.Q  H      W

Guitar Solo/Soul Clap

|--------------|-----------------|
|--- 7 Bars ---|-----------------|
|---  Rest  ---|---------------4-|
|--------------|-----------------|
                 H       Q   E E

Rap (Said the table to the chair...)

|-------------------|---------------------|-------------------|---------------------|
|-------------------|---------------3-----|-------------------|---------------3-----|
|-5---5---5-------3-|-5---5---5-------5-3-|-5---5---5-------3-|-5---5-----------5-3-|
|-------x-----3-----|-------x-------------|-------x-----3-----|-------x-------------|
  E S S E E E Q   E   E S S E E Q   S S E   E S S E E E Q   E   E S S E Q.    S S E

|-------------------|-------------------|-------------------|---------------------|
|-------------------|-------------------|-------------------|---------------3-----|
|-5---5---5-------3-|-5---5---5-------4-|-5---5---5-------3-|-5---5---5-------5-3-|
|-------x-----3-----|-------x-----------|-------x-----3-----|-------x-------------|
  E S S E E E Q   E   E S S E E E Q   E   E S S E E E Q   E   E S S E E Q   S S E

|-------------------|-------------------|-------------------|-----------------------|
|-------------------|-------------------|-------------------|-------------3-3-3-----|
|-5---5---5-------3-|-5---5---5---------|-5---5---5-------3-|-5---5---5---------5-3-|
|-------x-----3-----|-------x-----3-----|-------x-----3-----|-------x---------------|
  E S S E E E Q   E   E S S E E E Q.      E S S E E E Q   E   E S S E E E E S S S S

|-------------------|-------------------|-------------------|-------------------|
|-------------------|-------------------|-------------------|-------------3-3---|
|-5---5---5-------3-|-5---5---5-----5-4-|-5---5---5-------4-|-5---5---5-------4-|
|-------x-----3-----|-------x-----3-----|-------x-----3-----|-------x-----------|
  E S S E E E Q   E   E S S E E E E.S E   E S S E E E Q   E   E S S E E E E E E

|-------------------|---------------------|-------------------|-------------------|
|-------------------|---------------3-----|-------------------|-------------------|
|-5---5---5-------3-|-5---5---5-------5-3-|-5---5---5-------3-|-5---5---5-------4-|
|-------x-----3-----|-------x-------------|-------x-----3-----|-------x-----3-----|
  E S S E E E Q   E   E S S E E Q   S S E   E S S E E E Q   E   E S S E E E Q   E

Trumpet Solo

|---------------------|---------------------|-------------------|-------------------|
|-------3/7-----------|---------------------|----/5-------------|-------------------|
|-5---5-----5-5---5-4-|-5-5-----3-5-5-3-5-3-|-5-5---3---5-3-5-3-|-5-5-5-3-5-5-3-5-3-|
|---------------3-----|-----5-5-------------|-------------------|-------------------|
  E S S E E S S E E E   E S E S E E S E S E   E S E.E E S E S E   E S E.E E S E S E

|-------------------|-------------------|-------------------|-----------------|
|----/5-------------|-------------------|----/5-------------|---------------7-|
|-5-5---3---5-3-5-3-|-5-5-5-3-5-5-3-5-3-|-5-5---3---5-3-5-3-|-5-5-5-3-5-7-8---|
|-------------------|-------------------|-------------------|-----------------|
  E S E.E E S E S E   E S E.E E S E S E   E S E.E E S E S E   E S E.E E E E E

Verse 6 (Beautiful night now sing...)

|-----------------|-----------------|-----------------|-------------------|
|-----------------|-----------------|-----------------|-------------------|
|-5---------------|-5---------------|-5---------------|-5---------------4-|
|-----5---5---3---|-----5---5---3---|-----5---5---3---|-----5---5---3-----|
  E S S E E E E.E.  E S S E E E E.E.  E S S E E E E.E.  E S S E E E E.E.S

|---------------------|-------------------|-------------------|-------------------|
|---------------3-----|-------------------|-------------------|-------------------|
|-5---------------5-3-|-5-------------5-4-|-5-------------5-4-|-5-------------5-4-|
|-----5---5---3-------|-----5---5---3-----|-----5---5---3-----|-----5-5-5---3-----|
  E S S E E E E.S S S   E S S E E E E.S E   E S S E E E E.S E   E S S E E E E.S E


|-5-4-----------4-|-------------------|-5-4-----------4-|-------------------|
|-----7-5-4-5-7---|-------------------|-----7-5-4-5-7---|-------------------|
|-----------------|-5-------------5-4-|-----------------|-5-------------5-4-|
|-----------------|-----5---5---3-----|-----------------|-----5---5---3-----|
  E E E E E E E E   E S S E E E E.S E   E E E E E E E E   E S S E E E E.S E

|-5-4-----------4-|-----------------|-5-4-----------4-|-------6-10-------10-|
|-----7-5-4-5-7---|-7---------2-4-5-|-----7-5-4-5-7---|-----7------11-10----|
|-----------------|-5---------0-2-3-|-----------------|-5-8-----------------|
|-----------------|-----------------|-----------------|---------------------|
  E E E E E E E E   E E E E E E E E   E E E E E E E E   E E E E E  E  E  E

Horn Break

|-------2-4---------|---------------------4---|-------------------|-------------------|
|-3---3-------------|-----------5-7-5-7-5---7-|-------------------|-------------------|
|---------------5-4-|-5---0-0-0---------------|-5-------------5-4-|-5-------------5-4-|
|-------------3-----|-------------------------|-----5---5---3-----|-----5---5---3-----|
  E S S E E E E.S E   E S E S S S S S S S E E   E S S E E E E.S E   E S S E E E E.S E

|-------------------|---------------------|---------------------|---------------------|
|-------------------|---------------------|---------------------|---------------------|
|-5-------------5-4-|-5---------------5-4-|-5---------------5-4-|-5---------------5-4-|
|-----5---5---3-----|-----5-5-5---3-3-----|-----5---5---3-3-----|-----5-5-5---3-3-----|
  E S S E E E E.S E   E S S E E E S E S E   E S S E E E S E S E   E S S E E E S E S E

Horn Break Pt. 2

  6/4                           4/4
|-----------------------------|---------------------|-------------------|
|---------------3-------3-----|---------------------|-------------------|
|-5---5-5-----5---5-5-5---5---|-5---------------5-4-|-5-5-----------5-4-|
|-----------5-----------------|-----5---5---3-3-----|-----5-5---3-3-----|
  E S S E S S S E.E E S E.Q     E S S E E E S E S E   E S S E E E E E E

  6/4
|-----------------------------|
|---------------3-------3-----|
|-5-----------5---5-5-5---5---|
|-----5---5-------------------|
  E S S E E E S E.E E S E.Q

Solos 1

|---------------------|---------------------|---------------------|---------------------|
|---------------------|---------------------|---------------------|---------------------|
|-5---------------5-4-|-5---------------5-4-|-5---------------5-4-|-5---------------5-4-|
|-----5---5---3-3-----|-----5---5---3-3-----|-----5---5---3-3-----|-----5---5---3-3-----|
  E S S E E E S E S E   E S S E E E S E S E   E S S E E E S E S E   E S S E E E S E S E 

|---------------------|---------------------|---------------------|-------------------|
|---------------------|---------------------|---------------------|-------------------|
|-5---------------5-4-|-5---------------5-4-|-5---------------5-4-|-5-7-8-7-5-----5-4-|
|-----5---5---3-3-----|-----5---5---3-3-----|-----5---5---3-3-----|-----------3-3-----|
  E S S E E E S E S E   E S S E E E S E S E   E S S E E E S E S E   E E S E E S E S E

Chorus 8 (Oh we oh...) 

|-------------------|---------------------|---------------------|-------------------|
|-------------------|---------------------|---------------------|-------------------|
|-5---5---------5-4-|-5---------------5-4-|-5---------------5-4-|-5-7-8-7-5-----5-4-|
|---5---5---3-3-----|-----5---5---3-3-----|-----5---5---3-3-----|-----------3-3-----|
  E E E E E S E S E   E S S E E E S E S E   E S S E E E S E S E   E E S E E E S E S E 

|-------------------|---------------------|-----------------|---------5-6-7-6-|
|-------------------|---------------------|-----------2-3-4-|-5-7-8-9---------|
|-5---5---------5-4-|-5---------------5-4-|-5-7-8-7-5-------|-----------------|
|---5---5---3-3-----|-----5---5---3-3-----|-----------------|-----------------|
  E E E E E S E S E   E S S E E E S E S E   E E E E E E E E   E E E E E E E E

Solos 2

|---------5-------|---------5-------|-------------------|---5-4-----------|
|-----7-9---9-7-9-|---7-7-9---5-----|-------------------|-------7-5-------|
|-5-8-------------|-5-----------8-4-|-5-------------5-4-|-5---------8-7-4-|
|-----------------|-----------------|-----5---5---3-----|-----------------|
  E E E E E E E E   E.E S E E E.S E   E S S E E E E.S E   E E E E E E E E

|-----------------|-------------------|---------------------|---------------5-|
|---3-4-3---2-3---|---3-4-3-----------|---------------------|-----3-4-5-6-7---|
|-5-------------5-|-5-------------5-4-|-5---------------5-4-|-5-7-------------|
|-----------------|-----------3-3-----|-----5---5---3-3-----|-----------------|
  E E E E E E E E   E E E E E S E S E   E S S E E E S E S E   E E E E E E E E

|-------------------|---------------------|---------------------|---------------------|
|-------------------|---------------------|---------------------|---------------------|
|-5-------------5-4-|-5---------------5-4-|-5---------------5-4-|-5---------------5-4-|
|-----5---5---3-----|-----5---5---3-3-----|-----5---5---3-3-----|-----5---5---3-3-----|
  E S S E E E E.S E   E S S E E E S E S E   E S S E E E S E S E   E S S E E E S E S E 

|-----------------|-----------------|---------------------|-------------------|
|---9-7-9---9-7-9-|-----------------|---------------------|-------------------|
|-5---------------|-5-7-8-7-5---5-4-|-5---------------5-4-|-5-----------7-8-7-|
|-----------------|-----------3-----|-----5---5---3-3-----|-----5---5---------|
  E E E E E E E E   E E E E E E.S E   E S S E E E S E S E   E S S E E E E E E

Confusion!

|-----------------|-----------------|-------------------|-----------------||
|-----------------|-----------------|-----------2/3/5\3-|-----------------||
|-5---------------|-5-4-3-2-1-2-3-4-|-5\4\3/4/5/--------|-5---------------||
|-----------------|-----------------|-------------------|-----------------||
  E E Q   H         E E E E E E E E   E E E E E S S E E   E E Q   H


Key to rhythm notations:

W - Whole Note/Semi-Brieve
H - Half Note/Minim
Q - Quarter Note/Crotchet       Q. - Dotted Quarter Note
E - Eight Note/Quaver           E. - Dotted Eight Note
S - Sixteenth Note/Semi-Quaver  S. - Dotted Sixteenth Note
Добавлено: 19.03.2016
Другие материалы по этой песне:

Страница создана 29.02.2012
http://primanota.ru/prince/its-gonna-be-a-beautiful-night-chords.htm
Привет, Гость.
Предлагаем пройти революционный курс по гитаре.
Подарок от PrimaNota.Ru, забирай!