PrimaNota.ru - самый крупный в мире бесплатный архив песенных текстов, аккордов, табулатур и нот


Prince - Delirious - текст песни, бас-таба, видео

Регистрация Запомнить меня
Войти через:  Facebook Google Twitter Vk Yandex Mail.ru

Prince - Delirious - текст песни, бас-таба, видео

Печатать
Просмотров: 63
Авторы музыки: Prince
Авторы текста: Prince
                                     Delirious
                                      Prince

Bass                                                              Prince 

As played by Prince

Intro
                                                                         x4
||------------------|-----------------|-----------------|------------------||
||o-----------------|-----------------|-----------------|-----------------o||
||o-----------------|-----------------|-----------------|-----------------o||
||--3---------------|-----------------|-----------------|---0-----1---2----||
    Q   Q   H         W                 W                 E Q.    Q   Q

|-----------------|-----------------|-----------------|-----------------|
|------/5-----2---|------/5-----2---|------/5-----2---|------/5-----2---|
|-----------------|-----------------|-----------------|-----------------|
|-3---------------|-3---------------|-3---------------|-3---------------|
  Q   E Q.    Q     Q   E Q.    Q     Q   E Q.    Q     Q   E Q.    Q   

|-------3/5---2---|-------3/5---2---|-----------------|-----------------|
|-----------------|-----------------|------/5-----2---|------/5-----2---|
|-3---------------|-3---------------|-----------------|-----------------|
|-----------------|-----------------|-3---------------|-3---------------|
  Q   E S S Q Q     Q   E S S Q Q     Q   E Q.    Q     Q   E Q.    Q   

|-----------------|-----------------|-----------------|-----------------|
|-----------------|-----------------|------/5-----2---|-5-2-----3---4---|
|-5-----3/5---2---|-5-----3/5---2---|-----------------|-----------------|
|-----------------|-----------------|-3---------------|-----------------|
  Q   E S S Q Q     Q   E S S Q Q     Q   E Q.    Q     E Q.    Q   Q

Verse

|-----------------|-----------------|-----------------|-----------------|
|------/5-----2---|------/5-----2---|------/5-----2---|------/5-----2---|
|-----------------|-----------------|-----------------|-----------------|
|-3---------------|-3---------------|-3---------------|-3---------------|
  Q   E Q.    Q     Q   E Q.    Q     Q   E Q.    Q     Q   E Q.    Q   

|-------3/5---2---|-------3/5---2---|-----------------|-----------------|
|-----------------|-----------------|------/5-----2---|------/5-----2---|
|-3---------------|-3---------------|-----------------|-----------------|
|-----------------|-----------------|-3---------------|-3---------------|
  Q   E S S Q Q     Q   E S S Q Q     Q   E Q.    Q     Q   E Q.    Q   

|-----------------|-----------------|-----------------|-----------------|
|-----------------|-----------------|-----------------|-----------------|
|-5---------------|-------5-----4---|-3---------------|-------3-----3---|
|-----------------|-----------------|-----------------|-----------------|
  Q   Q   H         Q.    Q.    Q     Q   Q   H         Q.    Q.    Q

|-----------------|-----------------|-----------------|-----------------|
|-5---------------|-----------------|-----------------|-----------------|
|-----------------|-----------------|-----------------|-----------------|
|-----------------|-----------------|-3-----3-----3---|(3)0-0---1---2---|
  Q   Q   H         W                 Q   E Q   E Q     E E Q   Q   Q

Chorus

|-----------------|-----------------|-----------------|-----------------|
|------/5-----2---|------/5-----2---|------/5-----2---|------/5-----2---|
|-----------------|-----------------|-----------------|-----------------|
|-3---------------|-3---------------|-3---------------|-3---------------|
  Q   E Q.    Q     Q   E Q.    Q     Q   E Q.    Q     Q   E Q.    Q   

|-----------------|-----------------|-----------------|-----------------|
|-----------------|-----------------|------/5-----2---|------/5-----2---|
|-3-----1/3---0---|-3-----1/3---0---|-----------------|-----------------|
|-----------------|-----------------|-3---------------|-3---------------|
  Q   E S S Q Q     Q   E S S Q Q     Q   E Q.    Q     Q   E Q.    Q   

|-----------------|-----------------|-----------------|-----------------|
|-----------------|-----------------|------/5-----2---|-5-2-----3---4---|
|-5-----3/5---2---|-5-----3/5---2---|-----------------|-----------------|
|-----------------|-----------------|-3---------------|-----------------|
  Q   E S S Q Q     Q   E S S Q Q     Q   E Q.    Q     E Q.    Q   Q

Repeat Verse

Repeat Chorus

Chorus 3/Outro

||------------------|-----------------|-----------------|-----------------|
||o------/5-----2---|------/5-----2---|------/5-----2---|------/5-----2---|
||o-----------------|-----------------|-----------------|-----------------|
||--3---------------|-3---------------|-3---------------|-3---------------|
    Q   E Q.    Q     Q   E Q.    Q     Q   E Q.    Q     Q   E Q.    Q   

|-----------------|-----------------|-----------------|------------------||
|------/5-----2---|------/5-----2---|------/5-----2---|-5---------------o||
|-----------------|-----------------|-----------------|-----------------o||
|-3---------------|-3---------------|-3---------------|---0-----1---2----||
  Q   E Q.    Q     Q   E Q.    Q     Q   E Q.    Q     E Q.    Q   Q


Key to rhythm notations:

W - Whole Note/Semi-Brieve
H - Half Note/Minim
Q - Quarter Note/Crotchet       Q. - Dotted Quarter Note
E - Eight Note/Quaver           E. - Dotted Eight Note
S - Sixteenth Note/Semi-Quaver  S. - Dotted Sixteenth Note
Добавлено: 19.03.2016
Другие материалы по этой песне:

Страница создана 05.04.2012
http://primanota.ru/prince/delirious-chords.htm
Привет, Гость.
Предлагаем пройти революционный курс по гитаре.
Подарок от PrimaNota.Ru, забирай!