PrimaNota.ru - самый крупный в мире бесплатный архив песенных текстов, аккордов, табулатур и нот


Prince - Do it All Night - текст песни, бас-таба, видео

Регистрация Запомнить меня
Войти через:  Facebook Google Twitter Vk Yandex Mail.ru

Prince - Do it All Night - текст песни, бас-таба, видео

Печатать
Просмотров: 81
Авторы музыки: Prince
Авторы текста: Prince
                                 Do It All Night
                                      Prince

Bass                                                              Prince 

As played by Prince

Intro

  S
|-----------------|-----------------|
|-----------------|-----------------|
|-4---------------|-----------------|
|-----------------|-----------------|
  E E Q   H         W

  P     S           S   P   P   S     S     S   S       S   P   P   S
|-----------------|---------9p8-----|-----------------|---------9p8-----|
|-4---------------|-----9-----------|-----------------|-----9-----------|
|-----------------|-----------------|-----------------|-----------------|
|-------6---------|-7-----------7\--|-2-----6---6-----|-7-----------7---|
  E Q   E H         Q   Q   E E Q     E Q   Q   E Q     Q   Q   E E Q

  S     S           S   P   P   S     S     S           S   P   P    
|-----------------|---------9p8-----|-----------------|---------9p8-----|
|-----------------|-----9-----------|-----------------|-----9-----------|
|-----------------|-----------------|-----------------|-----------------|
|-2-----6---------|-7-----------7\--|-2-----6---------|-7---------------|
  E Q   E H         Q   Q   E E Q     E Q   E H         Q   Q   E E Q

  S
|-----------------|-----------------|
|-----------------|-----------------|
|-4---------------|-----------------|
|-----------------|-----------------|
  E E Q   H         W

Verse 1

  S P   S           S   P   P   S     S P   S           S   P   P   S
|-----------------|---------9p8-----|-----------------|---------9p8-----|
|---4-------------|-----9-----------|---4-------------|-----9-----------|
|-----------------|-----------------|-----------------|-----------------|
|-2-----6---------|-7-----------7\--|-2-----6---6-6---|-7-----------7\--|
  E E E E H         E E E E E E Q     E E E Q   E Q     E E E E E E Q

  S P   S     S     S   P   P   S     S P   S   S S     S   P   P   S
|-----------------|---------9p8-----|-----------------|--------13p11----|
|---4-------------|-----9-----------|---4-------------|-----9-----------|
|-----------------|-----------------|-----------------|-----------------|
|-2-----6-----6---|-7-----------7\--|-2-----6---6-6---|-7-----------7\--|
  E E E Q.    Q     E E E E E E Q     E E E Q   E Q     E E E E E E Q

  S P   S           S   P   P   S     S P   S   S       S   P   P   S
|-----------------|---------9p8-----|-----------------|---------9p8-----|
|---4-------------|-----9-----------|---4-------------|-----9-----------|
|-----------------|-----------------|-----------------|-----------------|
|-2-----6---------|-7-----------7\--|-2-----6---6-----|-7-----------7\--|
  E E E E H         E E E E E E Q     E E E Q   E Q     Q   E E E E Q

  S P   S   S S     S   P   P   S     S P   S   S       S   P   P   S
|-----------------|---------9p8-----|-----------------|--------13p11----|
|---4-------------|-----9-----------|---4-------------|-----9-----------|
|-----------------|-----------------|-----------------|-----------------|
|-2-----6---6-6---|-7-----------7\--|-2-----6---6-----|-7-----------7\--|
  E E E Q   E Q     E E E E E E Q     E E E Q   E Q     Q   E E E E Q

Pre-Chorus 1

  S S P             S P P       P S   S S P             S S P     S S
|-----6-----------|---6-6-------6---|-----4-----------|-----4-----------|
|-----------------|-----------------|-----------------|-----------------|
|-4-4-------------|-4-------------4-|-2-2-------------|-2-2-------2-2\--|
|-----------------|-----------------|-----------------|-----------------|
  E S S H     Q     E S S H     E E   E S S H     Q     E S S Q.  E Q

  S     S           S     S           S
|-----------------|-----------------|-----------------|-----------------|
|-----------------|-----------------|-----------------|-----------------|
|------/1---------|-2-----3---------|-4\--------------|-----------------|
|-2---------------|-----------------|-----------------|-----------------|
  E Q   E H         E Q   E H         E E Q   H         W

Chorus 1

  S     S           S   P   P   S     S P   S           S   P   P    
|-----------------|---------9p8-----|-----------------|---------9p8-----|
|-----------------|-----9-----------|---4-------------|-----9-----------|
|-----------------|-----------------|-----------------|-----------------|
|-2-----6---------|-7-----------7\--|-2-----6---------|-7-----------7\--|
  E Q   E H         E E E E E E Q     E E E E H         E E E E E E Q

  S P   S           S   P   P   S     S P   S           S   P   P    
|-----------------|---------9p8-----|-----------------|---------9p8-----|
|---4-------------|-----9-----------|---4-------------|-----9-----------|
|-----------------|-----------------|-----------------|-----------------|
|-2-----6---------|-7-----------7\--|-2-----6---------|-7-----------7\--|
  E E E E H         E E E E E E Q     E E E E H         Q   E E E E Q

  S
|-----------------|-----------------|
|-----------------|-----------------|
|-4\--------------|-----------------|
|-----------------|-----------------|
  E E Q   H         W

Verse 2

  S P   S           S   P   P   S     S P   S           S   P   P   S
|-----------------|---------9p8-----|-----------------|---------9p8-----|
|---4-------------|-----9-----------|---4-------------|-----9-----------|
|-----------------|-----------------|-----------------|-----------------|
|-2-----6---------|-7-----------7\--|-2-----6-----6-6-|-7-----------7\--|
  E E E E H         E E E E E E Q     E E E Q.    E E   E E E E E E Q

  S P   S     S     S   P   P   S     S P   S   S S     S   P   P   S
|-----------------|---------9p8-----|-----------------|--------13p11----|
|---4-------------|-----9-----------|---4-------------|-----9-----------|
|-----------------|-----------------|-----------------|-----------------|
|-2-----6-----6---|-7-----------7\--|-2-----6---------|-7-----------7\--|
  E E E Q.    Q     E E E E E E Q     E E E E H         E E E E E E Q

  S P   S           S   P   P   S     S P   S           S   P   P   S
|-----------------|---------9p8-----|-----------------|---------9p8-----|
|---4-------------|-----9-----------|---4-------------|-----9-----------|
|-----------------|-----------------|-----------------|-----------------|
|-2-----6---------|-7-----------7\--|-2-----6---------|-7-----------7\--|
  E E E E H         E E E E E E Q     E E E E H         E E E E E E Q

  S P   S   S S     S   P   P   S     S P   S   S       S   P   P   S
|-----------------|---------9p8-----|-----------------|--------13p11----|
|---4-------------|-----9-----------|---4-------------|-----9-----------|
|-----------------|-----------------|-----------------|-----------------|
|-2-----6---------|-7-----------7\--|-2-----6---------|-7-----------7\--|
  E E E E H         E E E E E E Q     E E E E H         Q   E E E E Q

Pre-Chorus 2

  S S P             S P P       P S   S S P             S S P       S
|-----6-----------|---6-6-----------|-----4-----------|-----4-----------|
|-----------------|-----------------|-----------------|-----------------|
|-4-4-------------|-4---------------|-2-2-------------|-2-2---------2\--|
|-----------------|-----------------|-----------------|-----------------|
  E S S H     Q     E S S H     Q     E S S H     Q     E S S H     Q

  S P   S           S     S           S
|-----------------|-----------------|-----------------|-----------------|
|---4-------------|-----------------|-----------------|-----------------|
|------/1---------|-2-----3---------|-4\--------------|-----------------|
|-2---------------|-----------------|-----------------|-----------------|
  E E E E H         E Q   E H         E E Q   H         W

Chorus 2

  S     S           S   P   P   S     S P   S           S   P   P    
|-----------------|---------9p8-----|-----------------|---------9p8-----|
|-----------------|-----9-----------|---4-------------|-----9-----------|
|-----------------|-----------------|-----------------|-----------------|
|-2-----6---------|-7-----------7\--|-2-----6---------|-7-----------7\--|
  E Q   E H         E E E E E E Q     E E E E H         E E E E E E Q

  S P   S           S   P   P   S     S P   S           S   P   P    
|-----------------|---------9p8-----|-----------------|--------13p11----|
|---4-------------|-----9-----------|---4-------------|-----9-----------|
|-----------------|-----------------|-----------------|-----------------|
|-2-----6---------|-7-----------7\--|-2-----6---------|-7-----------7\--|
  E E E E H         E E E E E E Q     E E E E H         Q   E E E E Q


Solo

  S P               S S P       P S   S P               S P P        S
|---6-------------|-----6-----------|---4-------------|---x-4-----------|
|-----------------|-----------------|-----------------|-----------------|
|-4---------------|-4-4-------------|-2---------------|-2-----------2\--|
|-----------------|-----------------|-----------------|-----------------|
  E.S Q   H         E S S H     Q     E.S Q   H         E S S H     Q

  S P   S           S     S           S
|-----------------|-----------------|-----------------|-----------------|
|-----------------|-----------------|-----------------|-----------------|
|------/1---------|-2-----3---------|-4\--------------|-----------------|
|-2---3-----------|-----------------|-----------------|-----------------|
  E E E E H         E Q   E H         E E Q   H         W

Chorus 3

  S     S           S   P   P   S     S P   S           S   P  P  P  P
|-----------------|---------9p8-----|-----------------|--------13-11-11\|
|-----------------|-----9-----------|---4-------------|-----9-----------|
|-----------------|-----------------|-----------------|-----------------|
|-2-----6---------|-7-----------7\--|-2-----6---------|-7---------------|
  E Q   E H         E E E E E E Q     E E E E H         E E E E E  E Q

  S P   S           S   P   P   S     S P   S           S S P   S S P 
|-----------------|---------9p8-----|-----------------|-----------------|
|---4-------------|-----9-----------|---4-------------|-----9-------9---|
|-----------------|-----------------|-----------------|-----------------|
|-2-----6---------|-7-----------7\--|-2-----6---------|-7-7-----7-7-----|
  E E E E H         E E E E E E Q     E E E E H         E E Q   E E Q  

  S P   S           S   P   P   S     S P   S           S   P  P  P  P
|-----------------|---------9p8-----|-----------------|--------13-11-11\|
|---4-------------|-----9-----------|---4-------------|-----9-----------|
|-----------------|-----------------|-----------------|-----------------|
|-2-----6---------|-7-----------7\--|-2-----6---------|-7---------------|
  E E E E H         E E E E E E Q     E E E E H         E E E E E  E Q

  S P   S           S   P   P   S     S P   S           S   S   S   S
|-----------------|---------9p8-----|-----------------|-----------------|
|---4-------------|-----9-----------|---4-------------|-----------------|
|-----------------|-----------------|-----------------|-2--/2--/2---4/--|
|-2-----6---------|-7-----------7\--|-2-----6---------|-----------------|
  E E E E H         E E E E E E Q     E E E E H         E E Q   E E Q  

  S P   S           S   P   P   S     S P   S           S P P P   P   P
|-----------------|---------9p8-----|-----------------|---x-x-x---x---x-|
|---4-------------|-----9-----------|---4-------------|-----------------|
|-----------------|-----------------|-----------------|-2---------------|
|-2-----6---------|-7-----------7\--|-2-----6---------|-----------------|
  E E E E H         E E E E E E Q     E E E E H         E E E Q   E E E

  S P   S           S   P   P   S     S P   S           S P P   P   P
|-----------------|---------9p8-----|-----------------|---x-4---4---4\--|
|---4-------------|-----9-----------|---4-------------|-----------------|
|-----------------|-----------------|-----------------|-2---------------|
|-2-----6---------|-7-----------7\--|-2-----6---------|-----------------|
  E E E E H         E E E E E E Q     E E E E H         E E Q   Q   Q

  S P   S           S   P   P   S     S P   S           S   P   P    
|-----------------|-------9-8-------|-----------------|--------13p11----|
|-4---------------|-----9-----9-----|---4-------------|-----9-----------|
|-----6---4-------|-----------------|-----------------|-----------------|
|-------------6\--|-7-----------7\--|-2-----6---------|-7-----------7\--|
  Q   Q   Q   Q     E E E E E E Q     E E E E H         Q   E E E E Q

  S P   S           S   P   P   S     S P   S           S   P   P    
|-----------------|---------9p8-----|-----------------|---------9p8-----|
|---4-------------|-----9-----------|---4-------------|-----9-----------|
|-----------------|-----------------|-----------------|-----------------|
|-2-----6---------|-7-----------7\--|-2-----6---------|-7-----------7\--|
  E E E E H         E E E E E E Q     E E E E H         Q   E E E E Q

  S P
|-----------------||
|---4-------------||
|-----------------||
|-2---------------||
  E E Q   H


Key to rhythm notations:

W - Whole Note/Semi-Brieve
H - Half Note/Minim
Q - Quarter Note/Crotchet       Q. - Dotted Quarter Note
E - Eight Note/Quaver           E. - Dotted Eight Note
S - Sixteenth Note/Semi-Quaver  S. - Dotted Sixteenth Note
Добавлено: 19.03.2016
Другие материалы по этой песне:
  • Аккорды и текст

Страница создана 02.05.2012
http://primanota.ru/prince/do-it-all-night-chords.htm
Привет, Гость.
Предлагаем пройти революционный курс по гитаре.
Подарок от PrimaNota.Ru, забирай!