PrimaNota.ru - самый крупный в мире бесплатный архив песенных текстов, аккордов, табулатур и нот


Prince - Do u Lie - текст песни, бас-таба, видео

Регистрация Запомнить меня
Войти через:  Facebook Google Twitter Vk Yandex Mail.ru

Prince - Do u Lie - текст песни, бас-таба, видео

Печатать
Просмотров: 70
Уроки эстрадного вокала в Санкт-Петербурге
                                     Do U Lie
                                      Prince

Bass                                                              Prince 


As played by Prince
       ___
      | 3 |
E E = Q   E

Intro

|-----------------|-----------------|
|-----------------|-----------------|
|---------5-------|-----5-----------|
|-3---3-----------|-3-------3-------|
  Q   Q   H         E E E E Q   Q

Verse 1

|-----------------|-----------------|-----------------|-----------------|
|-----------------|-----------------|-----------------|-----------------|
|-------4-5-------|-------8-6-------|-------5-6-------|-------7-5-------|
|-3-----------3---|-6-----------6---|-4-----------4---|-5-----------5-4-|
  Q.    E Q   Q     Q.    E Q   Q     Q.    E Q   Q     Q.    E Q   E E

|-----------------|-------7---------|-----------------|-----------------|
|-----------------|-----------------|-----------------|-----------------|
|-------4-5-------|-5---------------|---------3-------|-----------------|
|-3-----------3---|-------------5-4-|-3---------------|-3-------------x-|
  Q.    E Q   Q     Q.    Q.    E E   H       H         H.          E E

Verse 2

|-----------------|-----------------|-----------------|-----------------|
|-----------------|-----------------|-----------------|-----------------|
|-------4-5-------|-------8-6-------|-------5-6-------|-------7-5-------|
|-3-----------3---|-6-----------6---|-4-----------4-4-|-5-----------5-4-|
  Q.    E Q   Q     Q.    E Q   Q     Q.    E Q   E E   Q.    E Q   E E

|-----------------|-------7-7-------|-----------------|-----------------|
|-----------------|-----------------|-----------------|-----5-----------|
|-------4-5-------|-5-----------5---|---------3-------|-----------------|
|-3-----------3-3-|-----------------|-3---------------|-3-------------5-|
  Q.    E Q   E E   Q.    E Q   Q     H       H         Q   H       E E

Bridge 1                                                       ___
                                                              | 3 |
|-------3-3-------|---------3-------|-----------------|-----------------|
|-----------------|-----------------|---------5---2---|-----------------|
|-3-------------0-|-3-----3-------0-|-----------------|-5---------4-7---|
|-----------------|-----------------|-3-----3---------|-------5-7-----7-|
  Q.    E Q   E E   Q.    E Q   E E   Q.    E Q   Q     Q  Q  E E E E E

|---------3-----3-|---------3-------|-----------------|-----------------|
|-----------------|-----------------|---------5---2---|-----------------|
|-3-----3---------|-3-----3-------0-|-----------------|-5---------3-5-2-|
|-----------------|-----------------|-3-----3---------|---------5-------|
  Q.    E Q   E E   Q.    E Q   E E   Q.    E Q   Q     Q   Q   E E E E

|-----------------|-----------------|-----------------|-----------------|
|-----------------|---5-7-----------|-----------------|-----------------|
|-3---------3-4-5-|-7-----5-----x\--|---------5-------|-----------------|
|-----------------|-----------------|-3---------------|-3---4-----------|
  Q   Q  Q  E S S   E E E E Q   Q     H       H         E E H.

Verse 3

|-----------------|-----------------|-----------------|-----------------|
|-----------------|-----------------|-----------------|-----------------|
|-------4-5-------|-------8-6-------|-------5-6-------|-------7-5-------|
|-3-----------3---|-6-----------6-5-|-4-----------4---|-5-----------5-4-|
  Q.    E Q   Q     Q.    E Q   E E   Q.    E Q   Q     Q.    E Q   E E

|-----------------|-------7-7-------|-----------------|-----------------|
|-----------------|-----------------|-----------------|-----------------|
|-------4-5-------|-5-----------5---|---------3-------|-----------------|
|-3-----------3---|-----------------|-3---------------|-3-------------x-|
  Q.    E Q   Q     Q.    E Q   Q     H       H         H.          E E

Verse 4

|-----------------|-----------------|-----------------|-----------------|
|-----------------|-----------------|-----------------|-----------------|
|-------4-5-------|-------8-6-------|-------5-6-------|-------7-5-------|
|-3-----------3---|-6-----------6-5-|-4-----------4---|-5-----------5---|
  Q.    E Q   Q     Q.    E Q   E E   Q.    E Q   Q     Q.    E Q   Q 

|-----------------|-------7-7---7---|-----------------|-----------------|
|-----------------|-----------------|-----------------|-----------------|
|-------4-5-------|-5---------------|---------3-------|-----------------|
|-3-----------3---|-----------------|-3---------------|-3-------------x-|
  Q.    E Q   Q     Q.    E Q   Q     H       H         H.          E E

Bridge 2

|-----------------|-----------------|-----------------|-----7-7-7-6-6-5-|
|-------------3---|-5---7---8-7-5-3-|-----5-5-5-------|-----------------|
|-3---5---6-------|-----------------|-----------------|-5---------------|
|-----------------|-----------------|-3-----------3---|-----------------|
  Q   Q   Q   Q     Q   Q   E E E E   Q   E E Q   Q     Q   E E E E E E

|-----------------|-----------------|-----------------|-----5-5-5-------|
|-------------3---|-5-5-7---8-7-5-3-|-----5-5-5-------|-----------------|
|-3---5---6-------|-----------------|-----------------|-5-------------x-|
|-----------------|-----------------|-3-----------3---|-----------------|
  Q   Q   Q   Q     E E Q   E E E E   Q   E E Q   Q     Q   E E Q   E E

|-----------------|-----------------|-----------------|-----------------|
|-------------3---|-5---7---8-7-5-3-|---------5-------|(5)--------------|
|-3---5-----------|-----------------|-----------------|-----------------|
|-----------------|-----------------|-3-----3---------|-----------------|
  Q   Q   Q   Q     Q   Q   E E E E   Q.    E H         W

|-----5-5-----5---|-----------------|-----------------|
|-----------------|-----5-----------|-----------------|
|-3-------------0-|-----------------|-----------------|
|-----------------|-3-------2-------|-5---4-----------|
  Q   E Q.    E E   Q   Q   H         E E H.

Verse 5

|-----------------|-----------------|-----------------|-----------------|
|-----------------|-----------------|-----------------|-----------------|
|-------4-5-------|-------8-6-------|-------5-6-------|-------7-5-------|
|-3-----------3---|-6-----------6---|-4-----------4---|-5-----------5---|
  Q.    E Q   Q     Q.    E Q   Q     Q.    E Q   Q     Q.    E Q   Q 

|-----------------|-------7-7-------|-----------------|-----------------||
|-----------------|-----------------|-----------------|-----------------||
|-------4-5-------|-5-----------5---|---------3-------|-----------------||
|-3-----------3---|-----------------|-3---------------|-3---------------||
  Q.    E Q   Q     Q.    E Q   Q     H       H         W



Key to rhythm notations:

W - Whole Note/Semi-Brieve
H - Half Note/Minim
Q - Quarter Note/Crotchet       Q. - Dotted Quarter Note
E - Eight Note/Quaver           E. - Dotted Eight Note
S - Sixteenth Note/Semi-Quaver  S. - Dotted Sixteenth Note
Добавлено: 19.03.2016
Другие материалы по этой песне:

Страница создана 30.03.2012
http://primanota.ru/prince/do-u-lie-chords.htm
Привет, Гость.
Предлагаем пройти революционный курс по гитаре.
Подарок от PrimaNota.Ru, забирай!