PrimaNota.ru - самый крупный в мире бесплатный архив песенных текстов, аккордов, табулатур и нот


Prince - Glam Slam - текст песни, бас-таба, видео

Регистрация Запомнить меня
Войти через:  Facebook Google Twitter Vk Yandex Mail.ru

Prince - Glam Slam - текст песни, бас-таба, видео

Печатать
Просмотров: 66
Авторы музыки: Prince Rogers Nelson
Авторы текста: Prince Rogers Nelson
                                    Glam Slam
                                      Prince

Bass                                                              Prince 

As played by Prince

Intro & Verse 1

11 Bars Rest

Chorus 1

|-----------------|-----------------|-------8------11-|-----------------|
|-1---1---3---3---|-----------------|-----------6-----|-----------------|
|---2-------------|-6---------------|-4---------------|-----------------|
|-----------------|-------4---------|-----------------|-2---------------|
  E E Q   Q   Q     Q.    E H         Q.    Q   Q   E   H       H

|-----------------|-----------------|-----------------|-----------------|
|-1---1---3---3---|-----------------|-----------------|-----------------|
|---2-------------|-6---------------|-2-----4---4---4-|-----------------|
|-----------------|-------4---------|-----------------|-2---------------|
  E E Q   Q   Q     Q.    E H         Q.    Q   Q   E   W

|-----------------|-----------------|
|-----------------|-----------------|
|-----------------|-----------------|
|(2)--------------|-----------------|
  W                 W

Verse 2

|-----------------|-----------------|-----------------|-----------------|
|-----------------|------------/8---|-----------------|---3-------------|
|-----------------|-6---8---9-------|---------------6-|-------4---------|
|-----------------|-----------------|-----------------|-------------6-5-|
  W                 Q   Q   Q   Q     H.          E E   E Q   Q.    E E

|-----------------|-----------------|-----------------|-----------------|
|-----------------|-----------------|-----------------|-------------1-3-|
|---------------4-|(4)--2-----------|-------1-------2-|(2)----4---4-----|
|-4---------------|---------4-------|-4---------------|-----------------|
  E E H       E E   Q   Q   Q   Q     Q.    H       E   Q.    Q   E E E

Chorus 2

|-----------------|-----------------|-----------------|-----------------|
|-1---1-3---3-----|-----------------|-----------------|-----------------|
|---2---------6-4-|-6---------------|-4-----6---6-----|-----------------|
|-----------------|-------4---------|---------------2-|-2---------------|
  E E E Q   E E E   Q.    E H         Q.    Q   Q   E   Q   Q   H

|-----------------|-----------------|-----------------|-----------------|
|-1---1-----------|-----------------|-----------------|-----------------|
|---2-----4---4---|-6---------------|-2-----4---4-----|-----------------|
|-----------------|-------4---------|---------------2-|-2-----2-2-------|
  E E Q   Q   Q     Q.    E H         Q.    Q   Q   E   Q.    E Q   Q

2 Bars Rest

Spoken Word (Slap)

|-----------------|-----3-5-----3---|-----------------|---------3-5---3-|
|-----------------|---3-------------|-----------------|---3-------------|
|-----------------|-----------------|-----------------|-----------------|
|-0h1---1---1---1-|-1---------------|-1-----1/--1---1-|-1---------------|
  E E E E E E E E   E E E Q.    Q     Q.    E E E E E   E E Q   E Q   E

|-----------------|---------5-------|-----------------|-----------------|
|-----------------|---3-------------|---3---5---------|-----------------|
|---------1-------|-----------------|-----------------|-----------------|
|-1-----4-----4-1-|-----------------|-1-------1---1---|-1-----1-1-1-----|
  Q.    E Q   E E   E Q   E Q   Q     E Q   E E E E E   Q.    S S E Q.

|-----------------|-----------------|-----------------|-------------------|
|-----------------|-----------------|-----------------|-------------------|
|-----------------|-------------1---|-----------------|---------------3---|
|-1---------------|-1-1-1-1-1-1---4-|-1-1-1-1-1-1-1-1-|-3-1-1-1-1-------6-|
  W                 E E E E E E E E   E E E E E E E E   E E S S E Q   E E

|-----------------|-----------------|-----------------|-----------------|
|-----------------|-----3-3-3-3-3-3-|-3---------------|-----------------|
|-----------------|-----------------|-----------------|-------------1---|
|-1-1-1-1-1-1---1-|-1---------------|---1---1---1---1-|---1---1---1---1-|
  E E E E E E E E   E E E E E E E E   E E E E E E E E   E E E E E E E E

|-----------------|-----------------|-----------------|-----------------|
|-------1---3-----|-----------------|-----------------|-------------4---|
|-2-4---------6-4-|-6-6-6---4---4---|-4-----6---6---6-|-----------------|
|-----------------|-----------------|-----------------|-2-------2-------|
  E Q   Q   E E E   E E Q   Q   Q     Q.    Q   Q   E   H       E E Q

Chorus 3 (Fingerstyle)

|-----------------|-----------------|-----------------|-----------------|
|-1---1-----3-----|-----------------|-----------------|-----------------|
|---2-----------4-|-6---------------|-4-----6---8-----|-----------------|
|-----------------|-------4---------|---------------2-|-2---------------|
  E E Q   E Q   E   Q.    E H         Q.    Q   Q   E   E E Q   H

|-----------------|-----------------|
|-4\--------------|-----------------|
|-----------------|-----------------|
|-----------------|-----------2---2-|
  Q   H.            H       E Q   E

Verse 3 (Slap)

|-----------------|-----------------|-----------------|-----------------|
|-----------------|-----------------|---------------2-|---1-------------|
|-----------------|-----------------|-----------------|-------2---4-----|
|-2-----2---2---2-|-2-----2---2---2-|-2-----2---2-----|-----------------|
  Q.    Q   E E E   Q.    Q   Q   E   Q.    Q   E E E   E Q   Q   Q.

|-----------------|-----------------|-----------------|-----------------|
|-----------------|-----------------|---------------2-|---1-------------|
|-----------------|-----------------|-----------------|-------2---4-4---|
|-2-----2---2---2-|-2-----2---------|-2-------2\------|-----------------|
  Q.    Q   Q   E   Q.    Q   Q.      E E Q   Q     E   E Q   Q   E Q

Chorus 4 (Finger)

|-----------------|-----------------|-----------------|-----------------|
|-1---1-----3-----|-----------------|-----------------|--------/6---4---|
|---2-----------4-|-6---------------|-4-----6---8-----|-----4-6---------|
|-----------------|---------4-------|---------------2-|---6-------------|
  E E Q   E Q   E   Q.    E H         Q.    Q   Q   E   E E E E Q   Q

|-----------------|-----------------|-----------------|-----4-6-4---3---|
|-1---1-----3-----|-----------------|-----------------|-----------------|
|---2-----------4-|-6---------------|-2-----4---4---4-|-----------------|
|-----------------|-------4---------|-----------------|-2---------------|
  E E Q.    Q   E   Q.    E H         Q.    Q   Q   E   Q   E E Q   Q

Interlude 1

|-11----9-11--11-9---|--------9-11--9---|--------9-9-11-9----|----------16------|
|----11-----------11-|---9-11-----------|---9-11----------11-|-------16---------|
|--------------------|------------------|--------------------|-14---------------|
|--------------------|------------------|--------------------|------------------|
  E  E  E Q   E  E E   E E E  E Q   Q     E E E E  S E. E E    Q   E E  E E Q

|-----------------|-----9-9-9-------|-----9-9-9-------|-----9-9-9-------|
|-----------------|---9-------------|---9-------------|---8-------------|
|-7h9-------------|-----------------|-----------------|-----------------|
|-----------------|-----------------|-----------------|-----------------|
  E E H.            E E E E H         E E E E H         E E E E H        

Interlude 2 (Slap)

|-----------------|-----------------|-----------------|-----------------|
|-----------------|-----------------|-----------------|-----------------|
|-----------------|-----------------|-----------------|-----------------|
|---6\------------|---6\------------|---6\------------|---6\------------|
  E E Q   H         E E Q   H         E E Q   H         E E Q   H

|-----------------|-----------------|-----------------|-----------------|
|-----------------|-----------------|-----------------|-----------------|
|-----------------|-----------------|-----------------|-----------------|
|---6\------------|---6\------------|---6\------------|---6\--------6---|
  E E Q   H         E E Q   H         E E Q   H         E E Q   Q   Q

4 Bars Rest

Outro

|-----------------|-----------------|-----------------|-----------------|
|-----------------|-----------------|-----------------|-----------------|
|-----------------|-----------------|-----------------|-2---2-2-2---2-2-|
|-2---2-2-2---2-2-|-2---2-2-2---2-2-|-2---2-2-2---2-2-|-----------------|
  Q.  S S E E E E   Q.  S S E E E E   Q.  S S E E E E   Q.  S S E E E E 

|-----------------|-----------------|-----------------|-----------------|
|-----------------|-----------------|-----------------|-----------------|
|-----------------|-----------------|-----------------|-2---2-2-2---2-2-|
|-2---2-2-2---2-2-|-2---2-2-2---2-2-|-2---2-2-2---2-2-|-----------------|
  Q.  S S E E E E   Q.  S S E E E E   Q.  S S E E E E   Q.  S S E E E E 

|-----------------|-----------------|-----------------|-----------------|
|-----------------|-----------------|-----------------|-----------------|
|-----------------|-----------------|-----------------|---2-1-----------|
|-2---2-2-2---2-2-|-2---2-2-2---2-2-|-2---2-2-2---2-2-|---------2---4---|
  Q.  S S E E E E   Q.  S S E E E E   Q.  S S E E E E   E E Q   Q   Q

|-----------------|-----------------|-----------------|-----------------|
|-----------------|-----------------|-----------------|-----------------|
|-----------------|-----------------|-----------------|---2-2-2-2---2---|
|-2---2-2-2---2-2-|-2---2-2-2---2-2-|-2---2-2-2---2-2-|-----------------|
  Q.  S S E E E E   Q.  S S E E E E   Q.  S S E E E E   E E E E E E E E 

|-----------------|-----------------|-----------------|-----------------|
|-----------------|-----------------|-----------------|-----------------|
|-----------------|-----------------|-----------------|---2-1-----------|
|-2---2-2-2---2-2-|-2---2-2-2---2-2-|-2---2-2-2---2-2-|---------2---4---|
  Q.  S S E E E E   Q.  S S E E E E   Q.  S S E E E E   E E Q   Q   Q

|-----------------|-----------------|-----------------|-----------------|
|-----------------|-----------------|-----------------|-----------------|
|-----------------|-----------------|-----------------|---2-1-----------|
|-2---2-2-2---2-2-|-2---2-2-2---2-2-|-2---2-2-2---2-2-|---------2---4---|
  Q.  S S E E E E   Q.  S S E E E E   Q.  S S E E E E   E E Q   Q   Q

|-----------------|-----------------|-----------------||
|-----------------|-----------------|-----------------||
|-----------------|-----------------|-----------------||
|-2---2-2-2---2-2-|-2---2-2-2---2-2-|-2---------------||
  Q.  S S E E E E   Q.  S S E E E E   W


Key to rhythm notations:

W - Whole Note/Semi-Brieve
H - Half Note/Minim
Q - Quarter Note/Crotchet       Q. - Dotted Quarter Note
E - Eight Note/Quaver           E. - Dotted Eight Note
S - Sixteenth Note/Semi-Quaver  S. - Dotted Sixteenth Note

   
Добавлено: 19.03.2016
Другие материалы по этой песне:

Страница создана 13.03.2012
http://primanota.ru/prince/glam-slam-chords.htm
Привет, Гость.
Предлагаем пройти революционный курс по гитаре.
Подарок от PrimaNota.Ru, забирай!