PrimaNota.ru - самый крупный в мире бесплатный архив песенных текстов, аккордов, табулатур и нот


Pretenders - Whos Who - текст песни, бас-таба, видео

Регистрация Запомнить меня
Войти через:  Facebook Google Twitter Vk Yandex Mail.ru

Pretenders - Whos Who - текст песни, бас-таба, видео

Печатать
Просмотров: 120
Intro
G |------------------------------------------------------|
D |------------------------------------------------------|
A |------0-00-3-33-5-55----------------------------------|
E |-3-33-------------------------------------------------|

Verse (play softer than intro and chorus)
G |------------------------------------------------------|
D |------------------------------------------------------|
A |---------------------3-33-3-33-3-33-3-33--------------|
E |-3-33-3-33-3-33-3-33----------------------------------|

Prechorus (x3)
G |------------------------------------------------------|
D |------------------------------------------------------|
A |--------0-00-0--5-55-5--------------------------------|
E |-0-00-0-----------------------------------------------|

Chorus: Play intro

Bridge 2 (x4) “It must be so wonderful…”
G |------------------------------------------------------|
D |------------------------------------------------------|
A |-5-55-5-55-5-55-5-55-3-33-3-33-3-33-3-33--------------|
E |------------------------------------------------------|
Добавлено: 13.05.2012
Другие материалы по этой песне:
  • Аккорды и текст

Страница создана 15.03.2012
http://primanota.ru/pretenders/whos-who-chords.htm
Привет, Гость.
Предлагаем пройти революционный курс по гитаре.
Подарок от PrimaNota.Ru, забирай!