PrimaNota.ru - самый крупный в мире бесплатный архив песенных текстов, аккордов, табулатур и нот


Pretenders - The Wait - текст песни, бас-таба, видео

Регистрация Запомнить меня
Войти через:  Facebook Google Twitter Vk Yandex Mail.ru

Pretenders - The Wait - текст песни, бас-таба, видео

Печатать
Просмотров: 64
Уроки эстрадного вокала в Санкт-Петербурге
-------------------------------------------------------------------------------
                             THE WAIT - The Pretenders
-------------------------------------------------------------------------------
Tabbed by: Hanoihancock 

Optional Intro 
G|---------------------------------------------------------------------------|
D|---------------------------------------------------------------------------|
A|---------7-----------------------------------------------------------------|
E|-7---------------0-------7-7-7-7-7-7-7-7-7-7-7-7-7-7-7-7-7-7-7-7-7-7-7-7---|

G|---------------------------------------------------------------------------|
D|---------------------------------------------------------------------------|
A|-7-7-7-7-7-7-7-7-----------------------------------------------------------|
E|-----------------0--0-0-0--0-0-0--0-0-0--0-0-0--0-0-0--0-0-0--0-0-0-0-0-0--|

Verse 
G|---------------------------------------------------------------------------|
D|------66---------------66---------------66---------------------2-----------|
A|--------9-0h7------------9-0h7------------9-0h7-----------------------2h4--|
E|-77----------0----77----------0----77----------0----77---44-2-0-0--2h4-----|

Verse (Vox)
G|---------------------------------------------------------------------------|
D|------66---------------66---------------66---------------66----------------|
A|--------9-0h7------------9-0h7------------9-0h7------------9-0h7-----------|
E|-22----------0----77----------0----77----------0----77----------0--0-0-0-0-|

Chorus
G|-------------------------8-8-9-9-10-11-9-9-8-8-----------------------------|
D|-----8-8-9-9-10-10-11-11-----------------------11-11-9-9-8-8---------------|
A|-9-9---------------------------------------------------------11-11-9-9-9-9-|
E|---------------------------------------------------------------------------|

G|---------------------------------------------------------------------------|
D|-----8-8-9-9-11-11-----8-8-9-9-11-11---------------------------------------|
A|-9-9---------------9-9---------------7-7-7-7-7-7-7-7-7-7-7-7-7-7-7-7-------|
E|---------------------------------------------------------------------------|

Verse 
G|-----------------------------------------|
D|------66-------------------2-------------|
A|--------9-0h7------------------------2h4-|
E|-77----------0----77---44-2-0-0--2h4-----|

Verse (Vox)
G|---------------------------------------------------------------------------|
D|------66---------------66---------------66---------------66----------------|
A|--------9-0h7------------9-0h7------------9-0h7------------9-0h7-----------|
E|-22----------0----77----------0----77----------0----77----------0----------|

Chorus
G|-------------------------8-8-9-9-10-11-9-9-8-8-----------------------------|
D|-----8-8-9-9-10-10-11-11-----------------------11-11-9-9-8-8---------------|
A|-9-9---------------------------------------------------------11-11-9-9-9-9-|
E|---------------------------------------------------------------------------|

Chorus
G|---------------------------------------------------------------------------|
D|-----8-8-9-9-11-11-----8-8-9-9-11-11---------------------------------------|
A|-9-9---------------9-9---------------7-7-7-7-7-7-7-7-7-7-7-7-7-7-7-7-------|
E|---------------------------------------------------------------------------|

Bridge x 2 (Vox 2nd time) 
G|---------------------------------------------------------------------------|
D|---------------------------------------------------------------------------|
A|-0--5-7--5-7-5--0--5-7--5-7-5--0--5-7--5-7-5--0--5-7--5-7-5----------------|
E|---------------------------------------------------------------------------|

Bridge Key Change 
G|----------------------------------------------Oh Boy You've Been Forgotten-|
D|---------------------------------------------------------------------------|
A|----7-9--7-9-7-----7-9--7-9-7-----7-9--7-9-7-------------------------------|
E|-7--------------7--------------7--------------7----------------------------|

Guitar Solo 
G|---------------------------------------------------------------------------|
D|------2--------------2-2-44-22-00--------2--------------2-2-44-22-00-------|
A|---2/4-4-2-0------2/4-------------44--2/4-4-2-0------2/4-------------44----|
E|-2----------4-0-2-------------------2----------4-0-2-----------------------|

G|---------------------------------------------------------------------------|
D|------7-----------------7-----------------7-----------------7--------------|
A|---7/9-9-7-----------7/9-9-7-----------7/9-9-7-----------7/9-9-7-----------|
E|/7---------0445566-7--------044557/9\7---------0445566-7--------5555555----|

G|---------------------------------------------------------------------------|
D|------2--------------2-2-44-22-00--------2--------------2-2-44-22-00-------|
A|---2/4-4-2-0------2/4-------------44--2/4-4-2-0------2/4-------------44----|
E|-2----------4-0-2-------------------2----------4-0-2--------------------2--|

Verse 
G|---------------------------------------------------------------------------|
D|------66---------------66---------------66---------------------2-----------|
A|--------9-0h7------------9-0h7------------9-0h7-----------------------2h4--|
E|-77----------0----77----------0----77----------0----77---44-2-0-0--2h4-----|

Verse (Vox)
G|---------------------------------------------------------------------------|
D|------66---------------66---------------66---------------66----------------|
A|--------9-0h7------------9-0h7------------9-0h7------------9-0h7-----------|
E|-22----------0----77----------0----77----------0----77----------0----------|

Chorus/End
G|-------------------------8-8-9-9-10-11-9-9-8-8-----------------------------|
D|-----8-8-9-9-10-10-11-11-----------------------11-11-9-9-8-8---------------|
A|-9-9---------------------------------------------------------11-11-9-9-9-9-|
E|---------------------------------------------------------------------------|

G|---------------------------------------------------------------------------|
D|-----8-8-9-9-11-11-----8-8-9-9-11-11---------------------------------------|
A|-9-9---------------9-9---------------7-7-7-7-7-7-7-7-7-7-7-7-7-7-7-7--2-2--|
E|---------------------------------------------------------------------------|

| /  slide up
| \  slide down
| h  hammer-on
| p  pull-off
| ~  vibrato
| +  harmonic
| x  Mute note
===============================================================================
Добавлено: 18.03.2016
Другие материалы по этой песне:
  • Аккорды и текст

Страница создана 23.04.2012
http://primanota.ru/pretenders/the-wait-chords.htm
Привет, Гость.
Предлагаем пройти революционный курс по гитаре.
Подарок от PrimaNota.Ru, забирай!