PrimaNota.ru - самый крупный в мире бесплатный архив песенных текстов, аккордов, табулатур и нот


Pretenders - Private Life - аккорды и текст, таба, видео

Регистрация Запомнить меня
Войти через:  Facebook Google Twitter Vk Yandex Mail.ru

Pretenders - Private Life - аккорды и текст, таба, видео

Печатать
Просмотров: 105
Private Life
Pretenders
Song: Private life
Artist: The Pretenders 
Composer: Chrissie Hynde
Album: Pretenders
Tabbed by: DJ
15th July 2013

Em7  =  xxx787      or  xx2030  or  x79787
F#m7 =  xxx9 10 9   or  xx4250  or  x 9 11 9 10 9
C    =  x32010      or  x35553
G    =  320055      or  xx5433
D/F# =  200232      or  xx4232
Em   =  022000

 [Guitar 1 - Reggae rhythm through delay pedal on a 'slap-back' setting]
      Em7               F#m7             Em7
   /  /_/  /  /_/   /  /_/   /  /_/    /  /_/  /  /_/  /  /_/  /  /_/ 
e|-x--7-7--x-7-7---x--9--9--x--9--9--|-x--7-7--x--7-7--x--7-7--x--7-7--|
B|-x--8-8--x-8-8---x-10-10--x-10-10--|-x--8-8--x--8-8--x--8-8--x--8-8--|
G|-x--7-7--x-7-7---x--9--9--x--9--9--|-x--7-7--x--7-7--x--7-7--x--7-7--|
D|-----------------------------------|---------------------------------|
A|-----------------------------------|---------------------------------|
E|-----------------------------------|---------------------------------|


 [Guitar 2 - Lead riff through chorus pedal]
  Em7               F#m7               Em7
   /_/  /_/  /  /   /_/  /_/  /  /     /_/  /_/  /  /_/  /  /_/  /  /_/
e|--------0----------------0---------|--------0------------------------|
B|--------3----------------5---------|--------3------------------------|
G|------0----------------2-----------|------0--------------------------|
D|-x-2--------------x-4--------------|-x-2-----------------------------|
A|-----------------------------------|---------------------------------|
E|-----------------------------------|---------------------------------|

****************************************************************************

[Intro]
  Em7    F#m7     Em7          Em7   F#m7     Em7
|  /  /   /  / |  /  /  /  / |  /  /   /  / |  /  /  /  / |


[Chorus]
Em7        F#m7                      Em7
     Your private life drama, baby, leave me out,
Em7        F#m7                      Em7
     Your private life drama, baby, leave me out,
Em7        F#m7                      Em7
     Your private life drama, baby, leave me out,
Em7        F#m7                      Em7
     Your private life drama, baby, leave me!


[Verse 1]
Em7             F#m7                              Em7
     J'ai les glandes with your theatrics, your acting's a drag,
Em7       F#m7                                      Em7
     It's okay on T.V., 'cause you can turn it off,     but don't try me,
Em7              F#m7                              Em7
     Yes, your marriage is a tragedy, but it's not my concern,
Em7       F#m7                       Em7
     I am very superficial, I hate anything official!


[Chorus]
Em7              F#m7                     Em7
          Your private life drama, baby, leave me out,
    (You've been lying to someone  about  me!       ...Stop!)

Em7              F#m7                     Em7
          Your private life drama, baby, leave me out,
    (You've been lying to someone  about  me!       ...Stop!)

Em7              F#m7                     Em7
          Your private life drama, baby, leave me out,
    (You've been lying to someone  about  me!       ...Stop!)

Em7              F#m7                     Em7
          Your private life drama, baby, leave me out!
    (You've been lying to someone  about  me!)


[Break]
  Em7    F#m7     Em7          Em7   F#m7     Em7
|  /  /   /  / |  /  /  /  / |  /  /   /  / |  /  /  /  / |


[Verse 2]
Em7         F#m7                  Em7
    No, sentimental gestures only bore me to death,
Em7        F#m7                          Em7
    You've made a desperate appeal, now save your breath,
Em7        F#m7                          Em7
    At - tachment to obligation through guilt & regret, shit, that's so wet,
Em7          F#m7                           Em7
    And your sex life complications are not my fascinations!


[Chorus]
Em7              F#m7                     Em7
          Your private life drama, baby, leave me out,
    (You've been lying to someone  about  me!       ...Stop!)

Em7              F#m7                     Em7
          Your private life drama, baby, leave me out,
    (You've been lying to someone  about  me!       ...Stop!)

Em7              F#m7                     Em7
          Your private life drama, baby, leave me out,
    (You've been lying to someone  about  me!       ...Stop!)

Em7              F#m7                     Em7
          Your private life drama, baby, leave me out!
    (You've been lying to someone  about  me!)


[Break]
    C    G        D/F#
   Hoh--------,   hoh,oh---!
e|--0------------------------|
B|--1------------------------|
G|--0------------------------|
D|--2----------0---------0---|
A|--3-------2---------0------|
E|-------3---------2---------|


[Palm mute riff]
   Em7                          F#m7
e|----------------------------------------------------------|
B|------8------8------8------8------8------8------8------8--|
G|-7-h9---7-h9---7-h8---7-h9---7-h9---7-h9---7-h8---7-h9----|
D|----------------------------------------------------------|
A|----------------------------------------------------------|
E|----------------------------------------------------------|

   Em7
e|----------------------------------------------------------|
B|------8------8------8------8------8------8------8------8--|
G|-7-h9---7-h9---7-h8---7-h9---7-h9---7-h9---7-h8---7-h9----|
D|----------------------------------------------------------|
A|----------------------------------------------------------|
E|----------------------------------------------------------|

   Em7                          F#m7
e|----------------------------------------------------------|
B|------8------8------8------8------8------8------8------8--|
G|-7-h9---7-h9---7-h8---7-h9---7-h9---7-h9---7-h8---7-h9----|
D|----------------------------------------------------------|
A|----------------------------------------------------------|
E|----------------------------------------------------------|

   Em7
e|-----------------------------------------------------7\---|
B|------8------8------8------8------8------8------8----8\---|
G|-7-h9---7-h9---7-h8---7-h9---7-h9---7-h9---7-h8------7\---|
D|----------------------------------------------------------|
A|----------------------------------------------------------|
E|----------------------------------------------------------|


[Verse 3]
Em7     F#m7                          Em7
    You asked me for advice, I said, "Use the door!",
Em7      F#m7                           Em7
    But you're still clinging to some - body you deplore,
Em7     F#m7                                  Em7
    And now you want to use me for emotional blackmail,
Em7             F#m7                      Em7
    I just feel pity when you lie, con - tempt when you cry!


[Chorus]
Em7              F#m7                     Em7
          Your private life drama, baby, leave me out,
    (You've been lying to someone  about  me!       ...Stop!)

Em7              F#m7                     Em7
          Your private life drama, baby, leave me out,
    (You've been lying to someone  about  me!       ...Stop!)

Em7              F#m7                    Em7
          Your private life,     private life-----, leave me out,
    (You've been lying to someone  about me!     ...Stop!)

Em7              F#m7                     Em7
          Your private life drama, baby, leave me out!
    (You've been lying to someone  about  me!)


[Break]
    C   G         D/F#
   Hoh--------,   hoh,oh---!
e|--0------------------------|
B|--1------------------------|
G|--0------------------------|
D|--2----------0---------0---|
A|--3-------2---------0------|
E|-------3---------2---------|


[Lead Guitar solo]
    Em7    F#m7     Em7          Em7   F#m7     Em7
||:  /  /   /  / |  /  /  /  / |  /  /   /  / |  /  /  /  / :|| [Repeat]


[Break]
    C    G        D/F#
   Hoh--------,   hoh,oh---!
e|--0------------------------|
B|--1------------------------|
G|--0------------------------|
D|--2----------0---------0---|
A|--3-------2---------0------|
E|-------3---------2---------|


[Chorus]
Em7              F#m7                     Em7
          Your private life drama, baby, leave me out,
    (You've been lying to someone  about  me!       ...Stop!)

Em7              F#m7                     Em7
          Your private life drama, baby, leave me out,
    (You've been lying to someone  about  me!       ...Stop!)

Em7              F#m7                    Em7
          Your private life,     private life-----, leave me out------,
    (You've been lying to someone  about me!     ...Stop!)

Em7              F#m7                     Em7
          Your private life drama, baby, leave me out!
    (You've been lying to someone  about  me!)


[Coda]
    C   G       D/F#               Em7
   Hoh--------, hoh,oh,oh!
e|--0----------------------|---------3---------------|
B|--1----------------------|---------3---------------|
G|--0----------------------|---------0---------------|
D|--2---------0---------0--|---------2---------------|
A|--3------2---------0-----|---------2---------------|
E|------3---------2--------|---0--0------------------|


    C   G       D/F#         Em7         F#m7                     Em
   Hoh--------, hoh,oh,oh!                Hoh,you're mean!
e|--0----------------------|----------0----------------0---|----------||
B|--1----------------------|----------3----------------5---|----------||
G|--0----------------------|-------0-------------2---------|-------0--||
D|--2---------0---------0--|--x-2--------x---4-------------|-------2--||
A|--3------2---------0-----|-------------------------------|-------2--||
E|------3---------2--------|-------------------------------|-0--3-----||
Добавлено: 18.03.2016
Другие материалы по этой песне:
  • Аккорды и текст

Страница создана 28.05.2012
http://primanota.ru/pretenders/private-life-chords.htm
Привет, Гость.
Предлагаем пройти революционный курс по гитаре.
Подарок от PrimaNota.Ru, забирай!