PrimaNota.ru - самый крупный в мире бесплатный архив песенных текстов, аккордов, табулатур и нот


Porcupine Tree - Sleep Of No Dreaming Live - бас-таба, видео

Регистрация Запомнить меня
Войти через:  Facebook Google Twitter Vk Yandex Mail.ru

Porcupine Tree - Sleep Of No Dreaming Live - бас-таба, видео

Печатать
Просмотров: 101
                                  Artist - Porcupine Tree
                                  -----------------------
                              Song - The Sleep Of No Dreaming
                              -------------------------------                                  
                                  Album - Coma Diva (Live)
                                  ------------------------  

                                       Check Us Out At   
                               www.rockmusicbackingtracks.com
                             ----------------------------------

00:12
         SEC 1
[-----------------------]play till
[-----------------------]chorus
[--5-----3-----1-----3--]X11
[----5-----1-------5----]


01:07
Chorus
                     SEC 2
[------------------|--------------|-----------]
[------------------|--------------|-----------]
[--5---7---8---7---|--5---7---8---|-----------]X2
[----5---5---7---5-|----5---5---7-|--1-0-1-0--]



01:28
SEC 1 X9



02:12
SEC 2 X4


02:55
Weird bit
[-----------|--------------------------------]
[-----------|--------------------------------]
[--5---4----|----4-5---5-4------4-5---5-4----]
[----6---5--|--5-----6-----5--5-----6-----5--]


[------------------------------------------------------------------------]
[--------------------------------------------s---------------------------]
[--4--55---5-4---s---5---4---s--5---4---s--4-\5----4---s--5---4---s--4-5-]
[--------6-----5-\6----6---5-\6---6---5-\6------6----5-\6---6---5-\6-----]



03:40
Sec 2 X4


04:22
                 SEC 3
[--------------------------------------]
[--------------------------------------]
[--5-5-5-5-----------4-4-4-4-----------]X8
[-----------6-6-6-6-----------5-5-5-5--]



[---]
[---]
[-5-]
[---]
Добавлено: 03.07.2013
Другие материалы по этой песне:

Страница создана 21.07.2012
http://primanota.ru/porcupine-tree/sleep-of-no-dreaming-live-chords.htm
Привет, Гость.
Предлагаем пройти революционный курс по гитаре.
Подарок от PrimaNota.Ru, забирай!