PrimaNota.ru - самый крупный в мире бесплатный архив песенных текстов, аккордов, табулатур и нот


Porcupine Tree - The Blind House - текст песни, таба, видео

Регистрация Запомнить меня
Войти через:  Facebook Google Twitter Vk Yandex Mail.ru

Porcupine Tree - The Blind House - текст песни, таба, видео

Печатать
Просмотров: 202
-------------------------------------------------------------------------------
                             The Blind House – Porcupine Tree
-------------------------------------------------------------------------------
Album: The Incident
Date of release: September 15th, 2009
Tabbed by: Root Beer
Timing: 5/4 except where noted
Tuning: Drop D (DADGBE)

Intro: (distortion)
e|-------|
B|-------|
G|-------|
D|-1--1--|
A|-1--1--|
D|-1--1--|
  (These are tens) V
e|---------------------------------------|
B|---------------------------------------|
G|---7-7-7-7-7-101010106-6-6-6-6-6-------|
D|-0-------------------------------1--1--| x4
A|-0-5-5-5-5-5-8-8-8-8-4-4-4-4-4-4-1--1--|
D|-0-------------------------------1--1--|

e|---------------------------------------|
B|---------------------------------------|
G|---111111111114141414101010101010------|
D|-0-------------------------------1--1--| x4
A|-0-9-9-9-9-9-121212128-8-8-8-8-8-1--1--|
D|-0-------------------------------1--1--|

Verse 1: (clean)
“lyrics here”
e|---------------------------------------------------------------------------|
B|---------------------------------------------------------------------------|
G|-7---7---7-7---7-7-7---7---7-7---7-7-7/8---8---8-8---8-8-5---5---5-5---5-5-|
D|-7---7---7-7---7-7-7---7---7-7---7-7-7/8---8---8-8---8-8-5---5---5-5---5-5-|
A|-5---5---5-5---5-5-5---5---5-5---5-5-5/6---6---6-6---6-6-3---3---3-3---3-3-|
D|---------------------------------------------------------------------------|

e|-------------------------------------------------------------------------|
B|-------------------------------------------------------------------------|
G|-5---5---5-5---5-5-3---3---3-3---3-3-5---5---5-5---5-5-3---3---3-3---3-3-|
D|-5---5---5-5---5-5-3---3---3-3---3-3-5---5---5-5---5-5-3---3---3-3---3-3-|
A|-3---3---3-3---3-3-1---1---1-1---1-1-3---3---3-3---3-3-1---1---1-1---1-1-|
D|-------------------------------------------------------------------------|

e|---------------------------------------------------------------------------|
B|---------------------------------------------------------------------------|
G|-7---7---7-7---7-7-7---7---7-7---7-7-7/8---8---8-8---8-8-5---5---5-5---5-5-|
D|-7---7---7-7---7-7-7---7---7-7---7-7-7/8---8---8-8---8-8-5---5---5-5---5-5-|
A|-5---5---5-5---5-5-5---5---5-5---5-5-5/6---6---6-6---6-6-3---3---3-3---3-3-|
D|---------------------------------------------------------------------------|
                                                               (distortion)
e|---------------------------------------------------------------------|
B|---------------------------------------------------------------------|
G|-5---5---5-5---5-5-3---3---3-3---3-3-5---5---5-5---5-5-3---3---------|
D|-5---5---5-5---5-5-3---3---3-3---3-3-5---5---5-5---5-5-3---3---1--1--|
A|-3---3---3-3---3-3-1---1---1-1---1-1-3---3---3-3---3-3-1---1---1--1--|
D|---------------------------------------------------------------1--1--|

e|---------------------------------------|
B|---------------------------------------|
G|---111111111114141414101010101010------|
D|-0-------------------------------1--1--| x4
A|-0-9-9-9-9-9-121212128-8-8-8-8-8-1--1--|
D|-0-------------------------------1--1--|

Verse 2: (clean)
“lyrics here”
e|---------------------------------------------------------------------------|
B|---------------------------------------------------------------------------|
G|-7---7---7-7---7-7-7---7---7-7---7-7-7/8---8---8-8---8-8-5---5---5-5---5-5-|
D|-7---7---7-7---7-7-7---7---7-7---7-7-7/8---8---8-8---8-8-5---5---5-5---5-5-|
A|-5---5---5-5---5-5-5---5---5-5---5-5-5/6---6---6-6---6-6-3---3---3-3---3-3-|
D|---------------------------------------------------------------------------|

e|-------------------------------------------------------------------------|
B|-------------------------------------------------------------------------|
G|-5---5---5-5---5-5-3---3---3-3---3-3-5---5---5-5---5-5-3---3---3-3---3-3-|
D|-5---5---5-5---5-5-3---3---3-3---3-3-5---5---5-5---5-5-3---3---3-3---3-3-|
A|-3---3---3-3---3-3-1---1---1-1---1-1-3---3---3-3---3-3-1---1---1-1---1-1-|
D|-------------------------------------------------------------------------|

e|---------------------------------------------------------------------------|
B|---------------------------------------------------------------------------|
G|-7---7---7-7---7-7-7---7---7-7---7-7-7/8---8---8-8---8-8-5---5---5-5---5-5-|
D|-7---7---7-7---7-7-7---7---7-7---7-7-7/8---8---8-8---8-8-5---5---5-5---5-5-|
A|-5---5---5-5---5-5-5---5---5-5---5-5-5/6---6---6-6---6-6-3---3---3-3---3-3-|
D|---------------------------------------------------------------------------|
                                                                
e|-------------------------------------------------------------------------|
B|-------------------------------------------------------------------------|
G|-5---5---5-5---5-5-3---3---3-3---3-3-5---5---5-5---5-5-3---3---3-3---3-3-|
D|-5---5---5-5---5-5-3---3---3-3---3-3-5---5---5-5---5-5-3---3---3-3---3-3-|
A|-3---3---3-3---3-3-1---1---1-1---1-1-3---3---3-3---3-3-1---1---1-1---1-1-|
D|-------------------------------------------------------------------------|

Chorus: (distortion, 4/4 timing)
          “Freeeeeee looooooovvveee…”
e|---------------------------------------|
B|---------------------------------------|
G|---------------------------------------|
D|-5-5-5-5-5----1-1-1-1-1---1-1---1-1--1-| x2
A|-5-5-5-5-5----1-1-1-1-1---1-1---1-1--1-|
D|-5-5-5-5-5----1-1-1-1-1---1-1---1-1--1-|
           “Bring love to all my sisters…”
e|---------------------------------------------------------|
B|---------------------------------------------------------|
G|-10---10--10101010-10-101015----15---15151515--15--15-15-|
D|-8----8---8-8-8-8--8--8-8-13----13---13131313--13--13-13-|
A|-8----8---8-8-8-8--8--8-8-13----13---13131313--13--13-13-|
D|-8----8---8-8-8-8--8--8-8-13----13---13131313--13--13-13-|
          “Breeeeeaathe oooooouuuuttt…”
e|---------------------------------------|
B|---------------------------------------|
G|---------------------------------------|
D|-5-5-5-5-5----1-1-1-1-1---1-1---1-1--1-| x2
A|-5-5-5-5-5----1-1-1-1-1---1-1---1-1--1-|
D|-5-5-5-5-5----1-1-1-1-1---1-1---1-1--1-|
       “You don't need to know their secrets… believe me…”
e|---------------------------------------------------------|
B|---------------------------------------------------------|
G|-10---10--10101010-10-10101515---15151515----------------|
D|-8----8---8-8-8-8--8--8-8-1313---13131314----------------|
A|-8----8---8-8-8-8--8--8-8-1313---13131314-(let-ring)-----|
D|-8----8---8-8-8-8--8--8-8-1313---13131314----------------|

e|-------------------------------------------------|
B|-10--10-1010h11----11----10--10-1010h11----11----|
G|-10--10-1010-------10----10--10-1010-------10----|
D|-8---8--8-8--------8-----8---8--8-8--------8-----|
A|-8---8--8-8--------8-----8---8--8-8--------8-----|
D|-8---8--8-8--------8-----8---8--8-8--------8-----|

Repeat Verse 2

Repeat Chorus

Rest

Bridge: (4:07) (clean)
e|----------------------------------------------------------|
B|----------------------------------------------------------|
G|----------------------------------------------------------|
D|-5--------\(1)-1------------------------------------------| x8
A|-5--------\(1)-1(let-ring)--------------------------------|
D|-5--------\(1)-1------------------------------------------|

Outro: (distortion)
e|-------|
B|-------|
G|-------|
D|-1--1--|
A|-1--1--|
D|-1--1--|

e|---------------------------------------|
B|---------------------------------------|
G|--------/(10)-10-\(6)-6----------------|
D|-0-------------------------------1--1--| x2
A|-0------/(8)--8--\(4)-4----------1--1--|
D|-0-------------------------------1--1--|

e|---------------------------------------|
B|---------------------------------------|
G|--------/(14)-14--\(10)-10-------------|
D|-0-------------------------------1--1--| x2
A|-0------/(12)-12--\(8)--8--------1--1--|
D|-0-------------------------------1--1--|

e|---------------------------------------|
B|---------------------------------------|
G|---111111111114141414101010101010------|
D|-0-------------------------------1--1--| x4
A|-0-9-9-9-9-9-121212128-8-8-8-8-8-1--1--|
D|-0-------------------------------1--1--|

END ABRUPTLY
===============================================================================
Добавлено: 09.07.2012
Другие материалы по этой песне:

Страница создана 13.03.2012
http://primanota.ru/porcupine-tree/the-blind-house-chords.htm
Привет, Гость.
Предлагаем пройти революционный курс по гитаре.
Подарок от PrimaNota.Ru, забирай!