PrimaNota.ru - самый крупный в мире бесплатный архив песенных текстов, аккордов, табулатур и нот


Porcupine Tree - Blackest Eyes - текст песни, таба, бас-таба, драм-таба, видео

Регистрация Запомнить меня
Войти через:  Facebook Google Twitter Vk Yandex Mail.ru

Porcupine Tree - Blackest Eyes - текст песни, таба, бас-таба, драм-таба, видео

Печатать
Просмотров: 229
Авторы музыки: Steven Wilson
Авторы текста: Steven Wilson
Blackest Eyes

INTRO: (electric guitar)
-------------------------

E|-------------------------------|
B|-------------------------------|
G|-------------------------------|
D|-------0-------------0-0-------|  (x7)
A|-------------------------------|
D|-0--0-------0--0--0------------|

E|-------------------------------|
B|-------------------------------|
G|-------------------------------|
D|-------0-------------0-0-------|  (x1)
A|-------5-------------5-5-------|
D|-0--0-------0--0--0------------|


RIFF: (electric guitar)
------------------------

E|------------------------------------------------|
B|------------------------------------------------|
G|------------------------------------------------|
D|-3\2-0-3\2-0-3-0--------------------------------|
A|-3\2-0-3\2-0-3-0---5-----4-----3------0--5------|
D|-3\2-0-3\2-0-3-0------0-----0-----0-------------|

E|------------------------------------------------|
B|------------------------------------------------|
G|------------------------------------------------|
D|-3\2-0-3\2-0-3-0---------------------3----------|
A|-3\2-0-3\2-0-3-0---5-----4-----3-----3----------|
D|-3\2-0-3\2-0-3-0------0-----0-----0--3----------|

E|------------------------------------------------|
B|------------------------------------------------|
G|------------------------------------------------|
D|-3\2-0-3\2-0-3-0--------------------------------|
A|-3\2-0-3\2-0-3-0---5-----4-----3------0--5------|
D|-3\2-0-3\2-0-3-0------0-----0-----0-------------|

E|------------------------------------------------|
B|------------------------------------------------|
G|------------------------------------------------|
D|-3\2-0-3\2-0-3-0---------------------3----------|
A|-3\2-0-3\2-0-3-0---5-----4-----3-----3----------|
D|-3\2-0-3\2-0-3-0------0-----0-----0--3----------|


E|----------------------------------------------------------|
B|----------------------------------------------------------|
G|----------------------------------------------------------|
D|-3\2-0-3\2-0-3-0--0-3--3/5-5/6-6--------------------------|
A|-3\2-0-3\2-0-3-0--0-3--3/5-5/6-6-----5-0-----3-0----------|
D|-3\2-0-3\2-0-3-0--0-3--3/5-5/6-6--0-------0-------5--3----|

E|----------------------------------------------------------|
B|----------------------------------------------------------|
G|----------------------------------------------------------|
D|-3\2-0-3\2-0-3-0--0-3--3/5-5/6-6--------------------------|
A|-3\2-0-3\2-0-3-0--0-3--3/5-5/6-6-----5-0-----3-0----------|
D|-3\2-0-3\2-0-3-0--0-3--3/5-5/6-6--0-------0-------5--3----|

E|-------------------------------------------------------------|
B|-------------------------------------------------------------|
G|-------------------------------------------------------------|
D|-3\2-0-3\2-0-3-0--0-3--3/5-5/6-6-----------------------------|
A|-3\2-0-3\2-0-3-0--0-3--3/5-5/6-6-----5-0-----3-0------------5|
D|-3\2-0-3\2-0-3-0--0-3--3/5-5/6-6--0-------0-------5--3---0---|


VERSE: (acoustic guitar)
-------------------------

F/C              e            Dsus2
A mother sings a lullaby to a child
                A                   F/C
Sometime in the future the boy goes wild
            e                                Dsus2       A
And all his nerves are feeling some kind of energy

F/C           e                Dsus2
A walk in the woods and I will try
                    A                   F/C
Something under the trees that made you cry
         e                       Dsus2     Dsus2
It's so erotic when your make up runs


CHORUS: (acoustic guitar)
--------------------------
  A                            e
  I got wiring loose inside my head
  I got books that I never ever read
  A                          e
  I got secrets in my garden shed
  I got a scar where all my urges bled
  A                          e
  I got people underneath my bed
  I got a place where all my dreams are dead
    Bb             C                Dsus2
    Swim with me into your blackest eyes


Dsus2, F/C, Dsus2, F/C,
Dsus2, F/C, Dsus2, Dsus2


VERSE:
-------
F/C                e            Dsus2
A few minutes with me inside my van
                A
Should be so beautiful if we can
F/C          e               Dsus2    Dsus2
I'm feeling something taking over me

  A                            e
  I got wiring loose inside my head
  I got books that I never ever read
  A                           e
  I got secrets in my garden shed
  I got a scar where all my urges bled
  A                          e
  I got people underneath my bed
  I got a place where all my dreams are dead
    Bb            C                (Dsus2)
    Swim with me into your blackest eyes

RIFF: 
------

E|------------------------------------------------|
B|------------------------------------------------|
G|------------------------------------------------|
D|-3\2-0-3\2-0-3-0--------------------------------|
A|-3\2-0-3\2-0-3-0---5-----4-----3------0--5------|
D|-3\2-0-3\2-0-3-0------0-----0-----0-------------|

E|------------------------------------------------|
B|------------------------------------------------|
G|------------------------------------------------|
D|-3\2-0-3\2-0-3-0---------------------3----------|
A|-3\2-0-3\2-0-3-0---5-----4-----3-----3----------|
D|-3\2-0-3\2-0-3-0------0-----0-----0--3----------|

E|--------------------------------------------------------------|
B|--------------------------------------------------------------|
G|--------------------------------------------------------------|
D|-3\2-0-3\2-0-3-0---0---12-12---0--0---12---0--0--0---12-12----|
A|-3\2-0-3\2-0-3-0---0---12-12---0--0---12---0--0--0---12-12----|
D|-3\2-0-3\2-0-3-0---0---12-12---0--0---12---0--0--0---12-12----|

E|--------------------------------------------------------------|
B|--------------------------------------------------------------|
G|--------------------------------------------------------------|
D|-3\2-0-3\2-0-3-0---0---12-12---0--0---12---0--0--0---12-12----|
A|-3\2-0-3\2-0-3-0---0---12-12---0--0---12---0--0--0---12-12----|
D|-3\2-0-3\2-0-3-0---0---12-12---0--0---12---0--0--0---12-12----|

E|--------------------------------------------------------------|
B|--------------------------------------------------------------|
G|--------------------------------------------------------------|
D|-3\2-0-3\2-0-3-0---0---12-12---0--0---12---0--0--0---12-12----|
A|-3\2-0-3\2-0-3-0---0---12-12---0--0---12---0--0--0---12-12----|
D|-3\2-0-3\2-0-3-0---0---12-12---0--0---12---0--0--0---12-12----|

E|---------------|
B|---------------|
G|---------------|
D|-0--1--2/3-----|
A|-0--1--2/3-----|
D|-0--1--2/3-----|
    
                                                                  
piano part:
------------
F/C, e, Dsus2, A, F/C, e, Dsus2 


  A                            e
  I got wiring loose inside my head
  I got books that I never ever read
  A                          e
  I got secrets in my garden shed
  I got a scar where all my urges bled
  A                          e
  I got people underneath my bed
  I got a place where all my dreams are dead
    Bb             C               (Dsus2)
    Swim with me into your blackest eyes


RIFF:
------
E|------------------------------------------------|
B|------------------------------------------------|
G|------------------------------------------------|
D|-3\2-0-3\2-0-3-0--------------------------------|
A|-3\2-0-3\2-0-3-0---5-----4-----3------0--5------|
D|-3\2-0-3\2-0-3-0------0-----0-----0-------------|

E|------------------------------------------------|
B|------------------------------------------------|
G|------------------------------------------------|
D|-3\2-0-3\2-0-3-0---------------------3----------|
A|-3\2-0-3\2-0-3-0---5-----4-----3-----3----------|
D|-3\2-0-3\2-0-3-0------0-----0-----0--3----------|

E|------------------------------------------------|
B|------------------------------------------------|
G|------------------------------------------------|
D|-3\2-0-3\2-0-3-0--------------------------------|
A|-3\2-0-3\2-0-3-0---5-----4-----3------0--5------|
D|-3\2-0-3\2-0-3-0------0-----0-----0-------------|

E|------------------------------------------------|
B|------------------------------------------------|
G|------------------------------------------------|
D|-3\2-0-3\2-0-3-0---------------------3----------|
A|-3\2-0-3\2-0-3-0---5-----4-----3-----3----------|
D|-3\2-0-3\2-0-3-0------0-----0-----0--3----------|

E|----------------------------------------------------------|
B|----------------------------------------------------------|
G|----------------------------------------------------------|
D|-3\2-0-3\2-0-3-0--0-3--3/5-5/6-6--------------------------|
A|-3\2-0-3\2-0-3-0--0-3--3/5-5/6-6-----5-0-----3-0----------|
D|-3\2-0-3\2-0-3-0--0-3--3/5-5/6-6--0-------0-------5--3----|

E|----------------------------------------------------------|
B|----------------------------------------------------------|
G|----------------------------------------------------------|
D|-3\2-0-3\2-0-3-0--0-3--3/5-5/6-6--------------------------|
A|-3\2-0-3\2-0-3-0--0-3--3/5-5/6-6-----5-0-----3-0----------|
D|-3\2-0-3\2-0-3-0--0-3--3/5-5/6-6--0-------0-------5--3----|

E|-------------------------------------------------------------|
B|-------------------------------------------------------------|
G|-------------------------------------------------------------|
D|-3\2-0-3\2-0-3-0--0-3--3/5-5/6-6-----------------------------|
A|-3\2-0-3\2-0-3-0--0-3--3/5-5/6-6-----5-0-----3-0------------5|
D|-3\2-0-3\2-0-3-0--0-3--3/5-5/6-6--0-------0-------5--3---0---|

  
      EADGBe
F/C   X33210
e     022000
Dsus2 XX0230
A     X02220
Bb    X13331
C     X32010
Добавлено: 08.04.2012
Другие материалы по этой песне:

Страница создана 25.02.2012
http://primanota.ru/porcupine-tree/blackest-eyes-chords.htm
Привет, Гость.
Предлагаем пройти революционный курс по гитаре.
Подарок от PrimaNota.Ru, забирай!