PrimaNota.ru - самый крупный в мире бесплатный архив песенных текстов, аккордов, табулатур и нот


Porcupine Tree - Stranger By The Minute - текст песни, таба, видео

Регистрация Запомнить меня
Войти через:  Facebook Google Twitter Vk Yandex Mail.ru

Porcupine Tree - Stranger By The Minute - текст песни, таба, видео

Печатать
Просмотров: 50
Авторы музыки: Steven Wilson
Авторы текста: Steven Wilson
-------------------------------------------------------------------------------
                             Stranger by the Minute - Porcupine Tree
-------------------------------------------------------------------------------

Tabbed by: Bobbits

Gtr I (E A D G B E) - 'Guitar'
Gtr II (E A D G B E) - 'Slide Guitar'
Gtr III (E A D G B E) - 'Guitar'


Guitar 1

e|---------------------------------8----6----------------------------------------------------|
B|-----8---8h9---9p8--8~-------8-------------8----8\6---6----6--------------6--6--9-9p8------|
G|----------------------------------------------------6----6----6--5-5h6-6--------------6----|  
D|-------------------------------------------------------------------------------------------|
A|-6-6---6-----6----6------6-6---6---6----6----6---------------------------------------------|
E|-------------------------------------------------------------------------------------------|

e|---------------------------------8----6----------------------------------------------------|
B|-----8---8h9---9p8--8~-------8-------------8----8\6---6----6--------------6---6---9-9p8----|
G|----------------------------------------------------6----6----6--5-5h6-6----6---6-------6--|  2x
D|-------------------------------------------------------------------------------------------|
A|-6-6---6-----6----6------6-6---6---6----6----6---------------------------------------------|
E|-------------------------------------------------------------------------------------------|

e|-----------------------------------------------------------------|
B|-----------------------------------------------------------------|
G|-----8----8----------------------8--8----------8-----------------|
D|---------------6--------6------6-------------6-------------------|
A|-6-6-----------------6---6h8-6-----------8p6---------------------|
E|-----------------------------------------------------------------|




Guitar 1

e|---------------------------------8----6----------------------------------------------------|
B|-----8---8h9---9p8--8~-------8-------------8----8\6---6----6--------------6---6---9-9p8----|
G|----------------------------------------------------6----6----6--5-5h6-6----6---6-------6--|  3x
D|-------------------------------------------------------------------------------------------|
A|-6-6---6-----6----6------6-6---6---6----6----6---------------------------------------------|
E|-------------------------------------------------------------------------------------------|

e|--------------------------------------------------------------|
B|--------------------------------------------------------------|
G|-----8-----8--------------------8--8--------------------------|
D|---------------6-------6------6-------------------------------|
A|-6-6-----------------6--6h8-6-----------8p6~------------------|
E|--------------------------------------------------------------|

Guitar 2
                        3x
e|-----------------------|------------------------------------|
B|-8~--------8/---13~----|--11/13-----------------------------|
G|-8~--------8/----------|--11/13-13--------------------------|
D|-8~--------8/----------|----------13------------------------|
A|-----------------------|------------------------------------|
E|-----------------------|------------------------------------|




Guitar 2

e|----------------------------------------------------------------------------|
B|-13----------13----------13\--------14\13--------13---------13\--11---------|
G|----13----------13-------13\--------------13--------13------13\--11-11------|
D|-------13----------13------------------------13--------13--------11---------|
A|----------------------------------------------------------------------------|
E|----------------------------------------------------------------------------|

e|--------/15----------15-----15\\\13~---------------------------|
B|-16~-------15----------15--------------------3//8--------------|
G|-------------15----15----15------------------3//8--------------|
D|---------------------------------------------3//8--------------|
A|---------------------------------------------------------------|
E|---------------------------------------------------------------|




Guitar 1

e|---------------------------------8----6----------------------------------------------------|
B|-----8---8h9---9p8--8~-------8-------------8----8\6---6----6--------------6---6---9-9p8----|
G|----------------------------------------------------6----6----6--5-5h6-6----6---6-------6--|  
D|-------------------------------------------------------------------------------------------|
A|-6-6---6-----6----6------6-6---6---6----6----6---------------------------------------------|
E|-------------------------------------------------------------------------------------------|

Guitar 2

e|-----------------------|
B|-8~--------8/---13~----|
G|-8~--------8/----------|
D|-8~--------8/----------|
A|-----------------------|
E|-----------------------|

Guitar 3

e|-------15-16-18--15--13/15-15-15\13-13\11-11\9-9\8-8\6------------------8-11~--11/13-13-13\11-11~------|
B|-------------------------------------------------------9-8-9-8----8-9-11-------------------------------|
G|---------------------------------------------------------------10--------------------------------------|
D|-------------------------------------------------------------------------------------------------------|
A|-------------------------------------------------------------------------------------------------------|
E|-------------------------------------------------------------------------------------------------------|




Guitar 1

e|---------------------------------8----6----------------------------------------------------|
B|-----8---8h9---9p8--8~-------8-------------8----8\6---6----6--------------6---6---9-9p8----|
G|----------------------------------------------------6----6----6--5-5h6-6----6---6-------6--|  
D|-------------------------------------------------------------------------------------------|
A|-6-6---6-----6----6------6-6---6---6----6----6---------------------------------------------|
E|-------------------------------------------------------------------------------------------|

Guitar 2

e|-----------------------|
B|-8~--------8/---13~----|
G|-8~--------8/----------|
D|-8~--------8/----------|
A|-----------------------|
E|-----------------------|

Guitar 3

e|--------------------------------------16------16h18-16--------------------|
B|--------------------------------------x-------------------16--16h18-16~---|
G|--------------------------------------x-----------------------------------|
D|--------------------------------------------------------------------------|
A|--------------------------------------------------------------------------|
E|--------------------------------------------------------------------------|




Guitar 1

e|---------------------------------8----6--------------------------------------------------|
B|-----8---8h9---9p8--8~-------8-------------8----8\6---6----6-----------------------------|
G|----------------------------------------------------6----6----6--------8--8----8-8-------|  
D|-----------------------------------------------------------------------------------------|
A|-6-6---6-----6----6------6-6---6---6----6----6--------------------6-6-------6------------|
E|-----------------------------------------------------------------------------------------|

Guitar 2

e|-----------------------|
B|-8~--------8/---13~----|
G|-8~--------8/----------|
D|-8~--------8/----------|
A|-----------------------|
E|-----------------------|

Guitar 3


e|---------------------------------------------------------------------------------------------|
B|-------------------------14-14-x-----14-14/16-----13--14\13--14-14\13------------------------|
G|----------------------------------------------------------------------13---------------------|
D|-------------------------------------------------------------------------13------------------|
A|---------------------------------------------------------------------------------------------|
E|---------------------------------------------------------------------------------------------|



Guitar 2

e|----------------------------------------------------------------------------15-------15/18\15-15-----|
B|-14~\---13------13\11-11---------14~----16\~--13-----13\11--11--------16~-----15----------------15---|
G|----------13----13\11-11-11---------------------13------------11----------------15----------------15-|
D|------------13--------------11--------------------13------------11-----------------------------------|
A|-----------------------------------------------------------------------------------------------------|
E|-----------------------------------------------------------------------------------------------------|




Guitar 1 plays this during the solo

e|---------------------------------8----6---------------------------4---4---4--4-4--|
B|-----8---8h9---9p8--8~-------8-------------8----8\6---6----6------4---4---4--5-5--|
G|----------------------------------------------------6----6----6\--5---5---5--5-5--|  4x
D|------------------------------------------------------------------6---6---6--6-6--|
A|-6-6---6-----6----6------6-6---6---6----6----6--------------------6---6---6--6-6--|
E|------------------------------------------------------------------4---4---4--4-4--|


Guitar 3

e|--------------------------------------------------------------------------------------------|
B|-14b16--r14---14-14-14b16r14----------------------------------------------------------------|
G|-----------------------------13~--------11-13-11--13b14r13p11--13---11-11-11p8-11-8~--------|
D|----------------------------------11-13-----------------------------------------------------|
A|--------------------------------------------------------------------------------------------|
E|--------------------------------------------------------------------------------------------|

e|--------------------------------------------------------------------------------------------|
B|----------------16-18-18b19r18p16h18-18-16-x-16\14-x-14\13-x-14\13-11-13\11-9-9-------------|
G|-------/11-/13-x----------------------------------------------------------------------------|
D|-11-13--------------------------------------------------------------------------------------|
A|--------------------------------------------------------------------------------------------|
E|--------------------------------------------------------------------------------------------|

e|-16--16--16/18-18-18\16--16/18-18-18\16-16-16-16\15-15-15\11-11-11--------------------------|
B|--------------------------------------------------------------------------------------------|
G|-13--13--13/15-15-15\13--13/15-15-15\13-13-13-13\12-12-12\8--8--8--xx-6h8------6-8b9r8p6h8--|
D|----------------------------------------------------------------------------6-8-------------|
A|--------------------------------------------------------------------------------------------|
E|--------------------------------------------------------------------------------------------|

e|--------------------------------------------------------------------------------------------|
B|---------9\-9b10r9p7h9-9b10r9-7-x-9b10r9p7h9-9b-7---7-9b10r9-7-9--11-11-14-x-16-16-16-16-16-|
G|-8b9r8-6------------------------------------------8-----------------------------------------|
D|--------------------------------------------------------------------------------------------|
A|--------------------------------------------------------------------------------------------|
E|--------------------------------------------------------------------------------------------|

e|-18-----16-------15-------------------------------------------------------------------------|
B|----16-----16-16----16-16-------------------------------------------------------------------|
G|---------------------------15--15-17-15-----------------------------------------------------|
D|-------------------------------------------15---15b---15b-15b15b15b--13-13-13-13--13--------|
A|--------------------------------------------------------------------------------------------|
E|--------------------------------------------------------------------------------------------|

e|---------------------------------16-16-16-16-16-16------------------------------------------|
B|--------------------------------------------------------------------------------------------|
G|---18-18\17-17-x-17\15-15\13-----13-13-13-13-13-13------------------------------------------|
D|-13-----------------------------------------------------------------------------------------|
A|--------------------------------------------------------------------------------------------|
E|--------------------------------------------------------------------------------------------|



Guitar 3

e|--------------------------------------------------------------------------------------------|
B|-14~---16\13------13\11-------------------------18-20-18\-18~\-14/16/18\16\-------11--------|
G|------------13--------11----11----------------------------------------------13----11-11-----|
D|--------------13--------11------13-13-12--------------------------------------13\-11---11\--|
A|--------------------------------------------------------------------------------------------|
E|--------------------------------------------------------------------------------------------|

e|--------------------------------------------------------------------------------------------|
B|-14\---------13------13\11---------16-15---14~--/16/18---13------13\11------16-----18\15----|
G|------13-------13-------11-11------------------------------13---------11----------------15--|
D|---------13------13----------11------------------------------13---------11------------------|
A|--------------------------------------------------------------------------------------------|
E|--------------------------------------------------------------------------------------------|

e|-15-15-----------13~-----------------------------------------------|
B|------15--------------------11~------------------------------------|
G|--------15---------------------------------------------------------|
D|-------------------------------------------------------------------|
A|-------------------------------------------------------------------|
E|-------------------------------------------------------------------|

| /  slide up
| \  slide down
| h  hammer-on
| p  pull-off
| ~  vibrato
| +  harmonic
| x  Mute note
Добавлено: 07.05.2016
Другие материалы по этой песне:

Страница создана 17.03.2012
http://primanota.ru/porcupine-tree/stranger-by-the-minute-chords.htm
Привет, Гость.
Предлагаем пройти революционный курс по гитаре.
Подарок от PrimaNota.Ru, забирай!