PrimaNota.ru - самый крупный в мире бесплатный архив песенных текстов, аккордов, табулатур и нот


Porcupine Tree - Shes Moved On - текст песни, таба, видео

Регистрация Запомнить меня
Войти через:  Facebook Google Twitter Vk Yandex Mail.ru

Porcupine Tree - Shes Moved On - текст песни, таба, видео

Печатать
Просмотров: 232
Авторы музыки: Steven Wilson
Авторы текста: Steven Wilson
-------------------------------------------------------------------------------
                             SHESMOVEDON - Porcupine Tree
-------------------------------------------------------------------------------
Tabbed by: Paz
Email: king_in_crimson666@hotmail.com

Tuning: Standard

[A guitar plays the chorus chords over and over again |Em|C|Dsus2|C|; Over it is the 
w/ a buttload of wah-wah; Throw in your own artificial harmonics wherever you please]

e|---------------------------------------------------------------------------|
B|---------------------------------------------------------------------------|
G|-----------------------------------------------------7---<7-7-7-7-7-7>-7h9-|
D|----5-7<7b9r7><7b9r7>5--<5>5-------5-7-7b9r7-7b9r7-5---5-------------------|
A|--7-------------------7-----7---7------------------------------------------|
E|0-----------------------------0--------------------------------------------|

e|----------------------------------------5----5-----------------------------|
B|--8---8-7-7-7-7-7-5-7-7<7b8-->7-5---5-5------------------------------------|
G|9---7-----------------------------7-------7--------------------------------|
D|------------------------------------------------7b9r7-5-------5-7-7b9r7-5--|
A|--------------------------------------------------------7---7--------------|
E|---------------------------------------------------------------------------|

e|----------------------------------------------------10-10-10-10---10-10-10-|
B|--------------------------------------------------8-8--8--8--7b8--8--8--8r7|
G|----------------------------------------------7-9--------------------------|
D|--5-----------------------------5---5-7-7/9-9------------------------------|
A|7---7-6-5---------------5---5-7---7----------------------------------------|
E|----------7-5-3-2-3-5-7---7------------------------------------------------|

e|-----------------12-12-12-12-12-12-12-12-14-14b15r14-14b15r14--------------|
B|----------/12-15----------------------------------------------15-15-15-15--|
G|-9-7--7h9------------------------------------------------------------------|
D|---------------------------------------------------------------------------|
A|---------------------------------------------------------------------------|
E|---------------------------------------------------------------------------|

e|-17p14----------10---------10------10--------------------------------------|
B|-------15------------------------------------------------------------------|
G|----------14/12------12/11----11/9----9/7-7---5-4h5p4------/9-9-7-7--------|
D|------------------------------------------------------5-------------10-10--|
A|---------------------------------------------------------------------------|
E|---------------------------------------------------------------------------|

e|---------------------------------------------------------------------------|
B|----------------------------8---------8---------8-----------8-7-7----------|
G|----------------------7-9-9---9-9-9-9---9-9-9-9---9-9-9-9-9-------9-9-7-7--|
D|7----------------7-10------------------------------------------------------|
A|--10-10-7-5-7-10-----------------------------------------------------------|
E|---------------------------------------------------------------------------|

e|---------------------------------------------------------------------------|
B|-------------------------------------------------7-7-7-7-7b8r7-------------|
G|---------------------------------9-9-9-9-9-9-9-9---------------7---5-4-5-4-|
D|10-10-9-9-7-7-------7-7-9-9------------------------------------------------|
A|--------------10-10--------------------------------------------------------|
E|---------------------------------------------------------------------------|

e|----12-12-12-12----12-12-12-12----12-12-12-12----12-12-12-12----14-14-14-14|
B|-15b17----------15b17----------15b17----------15b17----------17b19---------|
G|---------------------------------------------------------------------------|
D|---------------------------------------------------------------------------|
A|---------------------------------------------------------------------------|
E|---------------------------------------------------------------------------|

e|---14-14-14-14-------14-14-14-14-------14b15r14-12-14b15r14-----0----------|
B|17b19----------17b19-------------17b19----------------------15--0----------|
G|----------------------------------------------------------------0----------|
D|----------------------------------------------------------------2----------|
A|----------------------------------------------------------------2----------|
E|----------------------------------------------------------------0----------|
| /  slide up
| \  slide down
| h  hammer-on
| p  pull-off
| ~  vibrato
| +  harmonic
| x  Mute note
| <> Artificial "pinch" harmonic
===============================================================================
Добавлено: 02.05.2012
Другие материалы по этой песне:

Страница создана 23.03.2012
http://primanota.ru/porcupine-tree/shes-moved-on-chords.htm
Привет, Гость.
Предлагаем пройти революционный курс по гитаре.
Подарок от PrimaNota.Ru, забирай!