PrimaNota.ru - самый крупный в мире бесплатный архив песенных текстов, аккордов, табулатур и нот


Pop Evil - Footsteps - таба, видео

Регистрация Запомнить меня
Войти через:  Facebook Google Twitter Vk Yandex Mail.ru

Pop Evil - Footsteps - таба, видео

Печатать
Просмотров: 189
Авторы: Leigh Kakaty, Dave Bassett

-------------------------------------------------------------------------------
                             FOOTSTEPS - Pop Evil
-------------------------------------------------------------------------------
Tabbed by: tbob13

Tuning: Drop D (DADGBE)

Intro/Verse 1: (0:00-1:22)
Tremelo
E|---------------------------    ---------|
B|---------------------------    ---------|
G|-7------3------4------5---- x3 ---rest--|
D|-0------0------0------0----    ---------|
A|---------------------------    ---------|
D|---------------------------    ---------|

E|---------------------------    --------------------------|
B|---------------------------    --------------------------|
G|-7------5------4------3---- x4 -7------5------4----rest--|
D|-0------0------0------0----    -0------0------0----------|
A|---------------------------    --------------------------|
D|---------------------------    --------------------------|

Chorus 1: (1:22-2:04)
Fuzz/Metal Distortion
E|---------------------------------------|
B|---------------------------------------|
G|-7-7-7---------------------------------| x3
D|-7-7-7-8-8-8-8-8-3-3-3-10-10-10-10-10--|
A|-5-5-5-8-8-8-8-8-3-3-3-10-10-10-10-10--|
D|-------8-8-8-8-8-3-3-3-10-10-10-10-10--|
   1 + 2 + 3 + 4 + 1 + 2 +  3  +  4  +

E|----------------------------------|
B|----------------------------------|
G|-7-7-7----------------------------|
D|-7-7-7-8-8-8-8-8-3-3-3------------|
A|-5-5-5-8-8-8-8-8-3-3-3---rest-----|
D|-------8-8-8-8-8-3-3-3------------|
   1 + 2 + 3 + 4 + 1 + 2 + 3 + 4 +

E|---------------------------------------|
B|---------------------------------------|
G|-7-7-7---------------------------------| x3
D|-7-7-7-8-8-8-8-8-3-3-3-10-10-10-10-10--|
A|-5-5-5-8-8-8-8-8-3-3-3-10-10-10-10-10--|
D|-------8-8-8-8-8-3-3-3-10-10-10-10-10--|
   1 + 2 + 3 + 4 + 1 + 2 +  3  +  4  +

E|----------------------------------|
B|----------------------------------|
G|-7-7-7----------------------------|
D|-7-7-7-8-8-8-8-8-3-3-3------------|
A|-5-5-5-8-8-8-8-8-3-3-3---rest-----|
D|-------8-8-8-8-8-3-3-3------------|
   1 + 2 + 3 + 4 + 1 + 2 + 3 + 4 +

Verse 2: (2:04-:25)
Tremolo
E|---------------------------|   
B|---------------------------|   
G|-7------5------4------3----| x2
D|-0------0------0------0----|   
A|---------------------------|   
D|---------------------------|

Chorus 2: (2:25-3:07)
Fuzz/Metal Distortion
E|---------------------------------------|
B|---------------------------------------|
G|---------------------------------------| x8
D|-0-0-0-8-8-8-8-8-3-3-3-10-10-10-10-10--|
A|-0-0-0-8-8-8-8-8-3-3-3-10-10-10-10-10--|
D|-0-0-0-8-8-8-8-8-3-3-3-10-10-10-10-10--|
   1 + 2 + 3 + 4 + 1 + 2 +  3  +  4  +

Bridge: (3:07-3:28)
Quieter Fuzz/Metal Distortion
E|---------------------------------------|
B|---------------------------------------|
G|---------------------------------------| x3
D|-0-0-0-8-8-8-8-8-3-3-3-10-10-10-10-10--|
A|-0-0-0-8-8-8-8-8-3-3-3-10-10-10-10-10--|
D|-0-0-0-8-8-8-8-8-3-3-3-10-10-10-10-10--|
   1 + 2 + 3 + 4 + 1 + 2 +  3  +  4  +

E|----------------------------------|
B|----------------------------------|
G|----------------------------------|
D|-0-0-0-8-8-8-8-8-3-3-3------------|
A|-0-0-0-8-8-8-8-8-3-3-3---rest-----|
D|-0-0-0-8-8-8-8-8-3-3-3------------|
   1 + 2 + 3 + 4 + 1 + 2 + 3 + 4 +

Chorus 3: (3:28-4:22)
Fuzz/Metal Distortion
E|---------------------------------------|
B|---------------------------------------|
G|---------------------------------------| x8
D|-0-0-0-8-8-8-8-8-3-3-3-10-10-10-10-10--|
A|-0-0-0-8-8-8-8-8-3-3-3-10-10-10-10-10--|
D|-0-0-0-8-8-8-8-8-3-3-3-10-10-10-10-10--|
   1 + 2 + 3 + 4 + 1 + 2 +  3  +  4  +

Clean Guitar
E|-------------------------------------|
B|-------------------------------------|
G|-----0------0---------0--------0-----|
D|---3-----------0--------0---------0--|
A|-5------1-----------------1-3--------|
D|-------------------3-----------------|

E|-------------------------------------|
B|-------------------------------------|
G|-----0------0---------0--------------|
D|---3-----------0--------0----rest----|
A|-5------1-----------------1----------|
D|-------------------3-----------------|



| /  slide up
| \  slide down
| h  hammer-on
| p  pull-off
| ~  vibrato
| +  harmonic
| x  Mute note
===============================================================================
Добавлено: 21.10.2015
Другие материалы по этой песне:
  • Аккорды и текст

Страница создана 21.10.2015
http://primanota.ru/pop-evil/footsteps-chords.htm
Привет, Гость.
Предлагаем пройти революционный курс по гитаре.
Подарок от PrimaNota.Ru, забирай!