PrimaNota.ru - самый крупный в мире бесплатный архив песенных текстов, аккордов, табулатур и нот


Pop Evil - Deal With The Devil - бас-таба, видео

Регистрация Запомнить меня
Войти через:  Facebook Google Twitter Vk Yandex Mail.ru

Pop Evil - Deal With The Devil - бас-таба, видео

Печатать
Просмотров: 323
Уроки эстрадного вокала в Санкт-Петербурге
Авторы: Leigh Kakaty, Dave Bassett

Artist: Pop Evil
Album: Onyx
Song: Deal with the devil
tabbed by Ges613

Either in Drop D or standard E. Which ever you think sounds better.

Key:
| /  slide up
| \  slide down
| h  hammer-on
| p  pull-off
| ~  vibrato
| +  harmonic
| x  Mute note
| *  Let ring


Intro:
Guitar starts. Its pretty obvious where the bass comes in.
G-----------------------------|
D-----------------------------|
A-----------------------------|
E--0--0-0--0--0-0-0-0--0-00-0-|



Verse:
"I-             Can-          get away with Murder!
"I-            am-         bound to take it further
G----------------------------------------|
D----------------------------------------|
A----------------------------------------|    X2
E-0-0-0-3-5-3-0-0-0-0-3-5-3-0----9/1-----|

Pre-Chorus
"I took the pills,I've been consumed, I Drank the water, I had to choose" Words change.
Just keep playing this til the Chorus.
G----------------------------------------------------------------------------|
D----------------------------------------------------------------------------|
A----------------------------------------------------------------------------|
E-0---------------0-0-----------------0-0----------------0-0-------------0-0-|


Chorus."Let it ride!"
G------------------------------------|
D------------------------------------|
A------------------------------------|
E--------------------3-3-3-3-5-5-5-5-|

"When youre high what your flying for!
"When you ride , Who youre riding for!
When you toast , Who you drinking for!
G------------------------------------------------------|
D------------------------------------------------------|
A------------------------------------------------------|
E0-0-0-0-0-0-0-0-0-0-0-0-0-0-0-0-0-0-0-3-3-3-3-5-5-5-5-|

"When you play, Gotta deal with the devil. I gotta deal with the devil I gotta deal with
the Devil. I gotta deal with the Devil!"

Im figuring this part out. Hard to hear the bass. slide from E-5 to E-1 at the end of
this part. Mute til guitar is done doing the mini solo thing.

Verse 2. Only slide 5/3 the first time
      "I-         Have-         found comfort in sorrow.
      "Now-       I'm-          bound empty and hallow.
G-------------------------------------------|
D-------------------------------------------|
A-------------------------------------------|   X2
E-5/3-0-0-0-3-5-3-0-0-0-0-3-5-3-0----9/1----|



Pre-Chorus
"I took the pills,I've been consumed, I Drank the water, I had to choose" Words change.
Keep playing til Solo.
G----------------------------------------------------------------------------|
D----------------------------------------------------------------------------|
A----------------------------------------------------------------------------|
E-0---------------0-0-----------------0-0----------------0-0-------------0-0-|


"When you play, Gotta deal with the devil. I gotta deal with the devil I gotta deal with
the Devil. I gotta deal with the Devil!"

Im figuring this part out. Hard to hear the bass.


Solo
G-----------------------------|
D-----------------------------|
A-----------------------------|    X2
E-0-0-0-3-5-3-0-0-0-0-3-5-3-0-|

G----------------------------------------------------------------------------|
D----------------------------------------------------------------------------|
A----------------------------------------------------------------------------|
E-0---------------0-0-----------------0-0----------------0-0-------------0-0-|


Chorus."Let it ride!"
G------------------------------------|
D------------------------------------|
A------------------------------------|
E--------------------3-3-3-3-5-5-5-5-|

"When youre high what your flying for!"
"When you ride , Who youre riding for!"
"When you toast , Who you drinking for!"
G------------------------------------------------------------|
D------------------------------------------------------------|      X3
A------------------------------------------------------------|
E0-0-0-0-0-0-0-0-0-0-0-0-0-0-0-0-0-0-0-3-3-3-3-5-5-5-5-------|




"When you play, Gotta deal with the devil. I gotta deal with the devil I gotta deal with
the Devil. I gotta deal with the devil I gotta deal with the Devil. I gotta deal with
the devil I gotta deal with the Devil. I gotta deal with the devil!"


Im figuring out this part. It hard to hear the bass during this part. At the end He says
"I gotta deal with the Devil!" seven times.


End with
G-------------|
D-------------|
A-------------|
E-0-0*--------|




All should be good!! This is my first tab. Please rate it and leave comments!!! Words
are exact. Had the album next to me with the lyrics. If you need to contact me email me 
at rockstar613@sbcglobal.net


ROCK ON EVERYONE!!!!!!!!!!!
Добавлено: 09.03.2014
Другие материалы по этой песне:

Страница создана 09.03.2014
http://primanota.ru/pop-evil/deal-with-devil-chords.htm
Привет, Гость.
Предлагаем пройти революционный курс по гитаре.
Подарок от PrimaNota.Ru, забирай!