PrimaNota.ru - самый крупный в мире бесплатный архив песенных текстов, аккордов, табулатур и нот


Pod - West Coast Rock Steady - таба, видео

Регистрация Запомнить меня
Войти через:  Facebook Google Twitter Vk Yandex Mail.ru

Pod - West Coast Rock Steady - таба, видео

Печатать
Просмотров: 380
P.O.D.: West Coast Rock Steady

Transcribed by: mysticguitar77

YouTube Username: MysticGuitar77

Date last modified: August 24, 2012

***UPDATE***8/24/12: Fixed the chorus a bit.

Tuning: Drop D (D,A,D,G,B,E)

Riff 1
E|------------------------------------------------|
B|------------------------------------------------|
G|------------------------------------------------|
D|-3-x-x-3-x-x-3-x-x-x-2/-----------------------3-|
A|-x-x-x-x-x-x-x-x-x-x-x--5-x-x-5-x-x-5-x-x-3h5---|
D|-3-x-x-3-x-x-3-x-x-x-2/-------------------------|

E|------------------------------------------------|
B|------------------------------------------------|
G|------------------------------------------------|
D|------------------------------------------------|
A|----------------------------------------------3-|
D|-7-x-x-7-x-x-7-x-x-x-5/-7-x-x-7-x-x-7-x-x-5h7---|

Play Riff 1 x2   "...so if you got any problems forget about it, c'mon!"

Riff 2   "It goes one for your boys in the southtown..."
E|--------------------------------|
B|--------------------------------|
G|--------------------------------|
D|-3---3---3---3---3---3---3---3\-|
A|-x---x---x---x---x---x----------|
D|-3---3---3---3---3---3----------|

Play Riff 1 x3   "I've been there, done that..."

Riff 3   "West coast rock steady!"
E|-------------------------------------------------|
B|-------------------------------------------------|
G|-9-x-7-x-10-x-9~--------9-x-7-x-4~---------------|
D|-9-x-7-x-10-x-9~--------9-x-7-x-2~-------2-2-2-2-|
A|-7-x-5-x-8--x-7~--------7-x-5-x-2~-------2-2-2-2-|
D|-7-x-5-x-8--x-7~--------7-x-5-x-2~-------2-2-2-2-|

Play Riff 3 x2   "West coast rock steady!"
Play Riff 1 x3   "Driving jets around but still it don't mean a thing..."
Play Riff 3 x2   "West coast rock steady!"

Riff 4 w/ wah   "Make 'em clap.."
E|---------------------------------------------------------------|
B|---------------------------------------------------------------|
G|---------------------------------------------------------------|
D|---------------------------------7*7*7*7*7*7*7*7*7*7*7*7*7-7-7-|
A|-7*7*7*7*7*7*7*7*7*7*7*7*7*7*7*7*------------------------0-0-0-|
D|---------------------------------------------------------------|

Play Riff 1 x0.5
Play Riff 2         "Show them how the west coast rocks..."

Riff 5 (alteration of Riff 3) "West coast rock steady!"
E|-------------------------------------------|
B|-------------------------------------------|
G|-9-x-7-x-10-x-9~----------9-x-7-x-4~-------|
D|-9-x-7-x-10-x-9~----------9-x-7-x-2~-------|
A|-7-x-5-x-8--x-7~----------7-x-5-x-2~-------|
D|-7-x-5-x-8--x-7~----------7-x-5-x-2~-------|

Play Riff 5 x4   "West coast rock steady!"

Ending    "Rock, haha!"
E|---------|
B|---------|
G|---------|
D|-2-2-2-2-|
A|-2-2-2-2-|
D|-2-2-2-2-|

Tab legend:
* = natural harmonic
h = hammer-on
x = string mute

Enjoy!
Добавлено: 30.09.2013
Другие материалы по этой песне:
  • Аккорды и текст

Страница создана 18.09.2013
http://primanota.ru/pod/west-coast-rock-steady-chords.htm
Привет, Гость.
Предлагаем пройти революционный курс по гитаре.
Подарок от PrimaNota.Ru, забирай!