PrimaNota.ru - самый крупный в мире бесплатный архив песенных текстов, аккордов, табулатур и нот


Pod - Sothtown - аккорды и текст, видео

Регистрация Запомнить меня
Войти через:  Facebook Google Twitter Vk Yandex Mail.ru

Pod - Sothtown - аккорды и текст, видео

Печатать
Просмотров: 81
Sothtown
Pod
the Intro is clean
[D------------------------------------------
A------------------------------------------
F------------------------------------------
C----4444-------------------4444-----------
G----2222-222222222222-2222-222222222222---
D-----------333333333333-------000000000000]

slight dist
[D------------------------------------------------
A------------------------------------------------
F------------------------------------------------
C----4-----------------4444------------------4444
G----2--555-5-5555--2222--222-2-2222---2222------
D--------333-3-3333---------000-0-0000-----------

D---------------------------------------
A---------------------------------------
F---------------------------------------
C---------------------------------------
G----55--7777-55--7777-22--4444-22--4444
D----33---------33--------00---------00-

D--------------------------------------------
A--------------------------------------------
F--------------------------------------------
C--------------------------------------------
G------9-10---9-10----9-----9-10----9-10---9-
D----0-------0-------0-----0--------0-------0

D-----------------------------------
A-----------------------------------
F-----------------------------------
C-----------------------------------
G----2-4-5-2-4-5-XXX-2-4-5-2-4-5-XXX
D----0-2-3-0-2-3-XXX-0-2-3-0-2-3-XXX

D--------------------------
A--------------------------
F--------------------------
C--------------------------
G----555-5-5555--222-2-2222
D----333-3-3333--000-0-0000]
Добавлено: 22.11.2013
Другие материалы по этой песне:
  • Аккорды и текст

Страница создана 22.11.2013
http://primanota.ru/pod/sothtown-chords.htm
Привет, Гость.
Предлагаем пройти революционный курс по гитаре.
Подарок от PrimaNota.Ru, забирай!