PrimaNota.ru - самый крупный в мире бесплатный архив песенных текстов, аккордов, табулатур и нот


Pantera - Floods outro - таба, видео

Регистрация Запомнить меня
Войти через:  Facebook Google Twitter Vk Yandex Mail.ru

Pantera - Floods outro - таба, видео

Печатать
Просмотров: 296


Gtr I (D G C F A D) - 'Untitled'



 4/4
  Gtr I
  E E E E E E   E E E E E E   E E E E E E E E E E E E
|--------------------------------------------------------|
|--------------------------------------------------------|
|-----8---8-6---------------------------------6---6-4----|
|---6---6-----------9---9-7-------4---4-6---4---4--------|
|-4---------------7---7---------2---2-----2--------------|
|---------------5-------------0--------------------------|


  E E E E E E   E E E E E  E   E E  E E  E  E  E  E  E  E  E  E
|------------------------------------------------------------------|
|------------------------------------------------------------------|
|-----8---8-9----------------------11---11-13-------13----13-14----|
|---6---6-----------9---9-11-----9----9----------11----11----------|
|-4---------------7---7--------7---------------9-------------------|
|---------------5--------------------------------------------------|


   E  E  E  E  E  E   E  E  E  E  E  E    E  E  E  E  E  E   E  E  E  E  E  E
|--------------------------------------------------------------------------------|
|--------------------------------------------------------------------------------|
|-------20----20-18-----------------------------------------------18----18-16----|
|----18----18--------------21----21-19---------16----16-14-----16----16----------|
|-16--------------------19----19------------14----14--------14-------------------|
|--------------------17------------------12--------------------------------------|


   E  E  E  E  E  E  E  E    E  E  E  E   E  E  E  E
|-------------------------|--------------------------|
|-------------------------|--------------------------|
|-------20----20-18-------|--------------------------|
|----18----18-------------|-21----21-19--------16----|
|-16-------------------19-|----19-----------14----14-|
|-------------------17----|--------------12----------|


   E  E   E  E  E  E  E  E  E  E
|-----------------------------------|
|-----------------------------------|
|--------------18----------18-------|
|-16-14-----16----16----16----16----|
|--------14----------15-------------|
|-----------------------------------|


   E  E  E  E  E  E  E  E
|-------------------------|
|-------------------------|
|-------20----20-18-------|
|----18----18-------------|
|-16-------------------19-|
|-------------------17----|


   E  E  E  E    E  E  E  E  E  E    E  E  E  E  E
|-----------------------------------------------------|
|-----------------------------------------------------|
|-----------------------------------------18----------|
|-21----21-19---------16----16-14------16----16-------|
|----19------------14----14---------14----------15----|
|---------------12------------------------------------|


  E E E E E E   E E E E E  E  E E E E E E  E E E E E E
|---------------------------------------------------------|
|---------------------------------------------------------|
|-----8---8-9----------------------------------6---6-4----|
|---6---6-----------9---9-11------4---4-6----4---4--------|
|-4---------------7---7---------2---2------2--------------|
|---------------5-------------0---------------------------|


                                                             ~~
  E E E E E E  E E   E E E  E   E E  E E  E  E   E  E  E  E  H
|------------------|----------------------------------------------|
|------------------|----------------------------------------------|
|-----8---8-9------|----------------11---11-13--------13----13----|
|---6---6----------|-9---9-11-----9----9-----------11----11-------|
|-4--------------7-|---7--------7----------------9----------------|
|--------------5---|----------------------------------------------|


Duration Legend
---------------
W - whole; H - half; Q - quarter; E - 8th; S - 16th; T - 32nd; X - 64th; a - acciaccatura
+ - note tied to previous; . - note dotted; .. - note double dotted
Uncapitalized letters represent notes that are staccato (1/2 duration)
Irregular groupings are notated above the duration line
Duration letters will always appear directly above the note/fret number it represents the
duration for.  Duration letters with no fret number below them represent rests.  Multi-
bar rests are notated in the form Wxn, where n is the number of bars to rest for.  Low
melody durations appear below the staff

Tablature Legend
----------------
 h   - hammer-on
 p   - pull-off
 b   - bend
 pb  - pre-bend
 r   - bend release (if no number after the r, then release immediately)
 /  - slide into or out of (from/to nowhere)
 s   - legato slide
 S   - shift slide
  - natural harmonic
[n]  - artificial harmonic
n(n) - tapped harmonic
 ~   - vibrato
 tr  - trill
 T   - tap
 TP  - trem. picking
 PM  - palm muting
n/  - tremolo bar dip; n = amount to dip
 n  - tremolo bar down
 n/  - tremolo bar up
/n  - tremolo bar inverted dip
 =   - hold bend; also acts as connecting device for hammers/pulls
   - volume swell (louder/softer)
 x   - on rhythm slash represents muted slash
 o   - on rhythm slash represents single note slash

Misc Legend
-----------
 |  - bar
||  - double bar
||o - repeat start
o|| - repeat end
*|  - double bar (ending)
 :  - bar (freetime)
 $  - Segno
 amp;  - Coda
Tempo markers -  = BPM(8/16=s8/s16), where s8 = swing 8ths, s16 = swing 16ths

Добавлено: 07.12.2013
Другие материалы по этой песне:
  • Аккорды и текст

Страница создана 07.12.2013
http://primanota.ru/pantera/floods-outro-chords.htm
Привет, Гость.
Предлагаем пройти революционный курс по гитаре.
Подарок от PrimaNota.Ru, забирай!