PrimaNota.ru - самый крупный в мире бесплатный архив песенных текстов, аккордов, табулатур и нот


Pantera - Reinventing Hell The Best Of Pantera - бас-таба, видео

Регистрация Запомнить меня
Войти через:  Facebook Google Twitter Vk Yandex Mail.ru

Pantera - Reinventing Hell The Best Of Pantera - бас-таба, видео

Печатать
Просмотров: 131
                           Pantera
                Reinventing Hell (The Best Of Pantera)



This is the first bass pantera album tab on UG     1. Cowboys From Hell
                                                   2. Domination
^ - bend                                           3. Cemetary Gates
p - pull off                                       4. Mouth Of War
h - hammer on                                      5. Walk
r - let ring                                       6. This Love
x - fretting                                       7. Fucking Hostile
* - rest                                           8. Becoming
                                                   9. I'm Broken
                                                  10. 5 Minutes Alone
10 out of 16 of the tabs were tabbed by me        11. Planet Caravan
                                                  12. Drag The Waters
                                                  13. Where You Come From
                                                  14. Revolution Is My Name
                                                  15. Immortally Insane
                                                  16. The Badge


____________________________________________________________________________
                         Cowboys From Hell

Tuning: Standard

intro/chorus pt.1
------------------------------|
----------------------------0-|
------------------------1-2---|
-0-3p0-6p0-5p0-6p0-3p0--------|

intro/chorus pt.2
----------------------|
----------------------|
----------------------|
-0-3p0-0-6-6--6-5-3-0-|

verse pt.1
-----------------------------|
---------------------------0-|
-----------------------1h2---|
-0-0--0--0--0--0--0--0-------|

verse pt.2
--------------------|
------------0-------|
--------------2p1p0-|
-0-0--0--0----------|

pre
----------------------------------|
----------------------------------|
----------------------------------|
-3--3-3-3-3-3-3-3-3-3-5-5--3r--1r-|

solo
---------|
---------|
---------|
-x-0-x-0-| i think this is the way you play the solo riff

solo 2
------------------------------|
------------------------------|
------------------------------|
-6h3-6h3-6h3-9--6h3-6h3-6h3-7-|

____________________________________________________________________________
                            Domination

Tuning: Standard


------------------------------------------|
------------------------------------------|
-----7---7-----7---7------7---7-----------|
-0-0---0---0-0---0----0-0---0---0-0-3/5\3-|


-------------------------|
-------------------------|
-------------------------|
-2-2-2-2-3-3-3-3-4-4-4-4-|


----------|
----------|
----------|
1-1-1-1-0-|


--------------|
--------------|
-5--4-3-2-1-0-|
--------------|


-------------------------|
-------------------------|
--------7---------7----7-|
--0-0-0---0-0-0-0---0-0--|


!!those words that stare into your soul!!
--------------------------------------------------------------------|
--------------------------------------------------------------------|
-7r--3r--5r-------------8r-----------7r-------------6r--5-4-3-2-1-0-|
--------------0-0-0-0-0----0-0-0-0-0------0-0-0-0-0-----------------|

solo
---------------|
---------------|
---------7-----|
-0-0-0-0---0-0-|  this is play before and during the solo

outro
---------------------|
---------------------|
---------------------|
-0-0-0--0-0-0--0-0-0-|

____________________________________________________________________________
                        Cemetary Gates


Tuning: Standard


intro
-----------------------|------------------------|
-----------------------|------------------------|
----0-------5---4-2-0--|------------------------| 
-2----0---4------------|-3r---4r---5r---6r---7r-|
                       !!left in my misery^^^!! 

main riff
--------------------------------------------------------|
------------------------9-------------------------------|
-----------7h6h7-8--6h7--------------7h6h7-8-6h7-6------|
-7h6-0-0-0-----------------7h6-0-0-0----------------7-6-|

verse1
------------------------------|
------------------------------|
-------0-x-x-x-2-x-x-x-3------|
-2-x-x--------------------0-1-|

verse2
--------------------------------|-----------------|
--------------------------------|-----------------|
-----3/--0r--2/--2r--3/--3r--2r-|-3-3-3-3-3-------|
-2r-----------------------------|-----------0-1-2-|


-----------------------------|
-----------------------------|
-3----3------3-3-----3-3-----|
--0-1---0-1------0-1-----0-1-|


play the intro for the solo
and verse 2
____________________________________________________________________________
                      Mouth of War

Tuning: Standard


intro/pre
--------------------------------------|
--------------------------------------|
--------------------------------------|
-0-1h2-2-2--2--2-2-2-0-1h2-2--2--2--2-|


chorus
---------------------------|--------------------|
---------------------------|--------------6-6-6-|
---------------------------|--------------------|
-0-3/7-0-3-0-3/7-0-3/7-0-3-|0-3/7-0-3-0-7\------|


verse
---------------------------------------------------------------|
---------------------------------------------------------6-6-6-|
---------------------------------------------------------------|
-0-0-6-0-6/7-0-5/6-0-3-0-3/5-0-2/3-0-6-0-6/7-0-5/6-0-3-0-------|


-----------------------------------------|
-----------------------------------------|
---------2-------6-5-4-2-2-2-------7-6-5-|
--2-4-4-4
Добавлено: 12.09.2013
Другие материалы по этой песне:
  • Аккорды и текст

Страница создана 12.09.2013
http://primanota.ru/pantera/reinventing-hell-the-best-of-pantera-chords.htm
Привет, Гость.
Предлагаем пройти революционный курс по гитаре.
Подарок от PrimaNota.Ru, забирай!