PrimaNota.ru - самый крупный в мире бесплатный архив песенных текстов, аккордов, табулатур и нот


Pantera - Regular people conciet - бас-таба, видео

Регистрация Запомнить меня
Войти через:  Facebook Google Twitter Vk Yandex Mail.ru

Pantera - Regular people conciet - бас-таба, видео

Печатать
Просмотров: 100


Regular People (By PanterA)

     INTRO
G------------------------------------|
D------------------------------------|
A------------------------------------|
E-0-0-0-0-0-0-0-0-0-0-0-0-0-0-0-0----|

THE COOL PART (I love it)
G----------------------------------------------------------------|
D----------------------------------------------------------------|
A----------8p7------------7---------------7p5------------5-------|
E--0--0-0-------0--0--7h8---0-5h6--0--0-0------0--0--5h6---0-3h5-|

G------------------------------------------------------------|
D------------------------------------------------------------|
A----------7h8------------7----------------------------------|
E--0--0-0-------0--0--7h8---0-0-4--0-0-5--0-0-6--0-0-3--0-0-1|


G---------------------------------------------------------------|
D---------------------------------------------------------------|
A---------------------------------------------------------------|
E--0--0-0--0-0--0-0-0--3b--0--0-0--0-0-0--5b--0--0-0--0-0-0--6b-|

G---------------------------------|
D---------------------------------|
A---------------------------------|
E--5--5-5--6--6-6--3--3-3--1--1-1-|

Just listen to the song and repeat the parts.
Tab autor : Buho. If you think the tab is not
right or if you have any other notes please write me to mo_@mail.bg

Добавлено: 24.08.2013
Вам также может быть интересно:
Другие материалы по этой песне:
  • Аккорды и текст

Страница создана 24.08.2013
http://primanota.ru/pantera/regular-people-conciet-chords.htm
Привет, Гость.
Предлагаем пройти революционный курс по гитаре.
Подарок от PrimaNota.Ru, забирай!