PrimaNota.ru - самый крупный в мире бесплатный архив песенных текстов, аккордов, табулатур и нот


Opeth - In My Time Of Need Live - аккорды и текст, видео

Регистрация Запомнить меня
Войти через:  Facebook Google Twitter Vk Yandex Mail.ru

Opeth - In My Time Of Need Live - аккорды и текст, видео

Печатать
Просмотров: 60
Уроки эстрадного вокала в Санкт-Петербурге
In My Time Of Need Live
Opeth
Song: In My Time Of Need
Band: Opeth
Album: Damnation

Transcribed by: Jonas Svarholt
Tuning: Eadgbe

This tab is 100% correct.
Source: Live videos on youtube & album version.



RIFF 1 (Intro & Verse)


|---------0-----------|
|-------7---7---------|
|-----0-------0-------|
|---7-----------7-----|
|---------------------|
|-0-------------------|

|----------0---3------|
|------1-----1-----1--|
|----4---4-------4----|
|---------------------|
|--0------------------|
|---------------------|



RIFF 2 ("Summer is miles and miles away...")


|-4-------2-------2-------1-------1-------1-------1--------1-------1-------1-------1-------|
|---4-------2-------2-------1-------1-------1-------1--------1-------1-------1-------1-----|
|-----6-------4-------4-------3-------3-------3-------3--------3-------3-------3-------3---|
|-------------------------------3-------3-------3-------3--------3-------3-------3-------3-|
|-4-------2-------0-------1--------------------------------1-------------------------------|
|------------------------------------------------------------------------------------------|



RIFF 3 ("And I should contemplate this change...")


Em:    079980

Bm:    799777

Am:    577555

Bsus4: x2x400

B/F#:  22x4xx

E5:    022xxx



SOLO (Coming soon)




RIFF 4 ("At times the dark's fading slowly...")



Mikael:

|-0---x---x---x--|
|-0---x---x---6--|
|-2---2---0---5--|
|-2---2---1---3--|
|-0---1---3---4--|
|----------------|


Peter:

|-0---x---x---6--|
|-0---x---x---6--|
|-2---2---0---6--|
|-2---2---1---3--|
|-0---1---3---4--|
|----------------| 
Добавлено: 07.05.2016
Вам также может быть интересно:
Другие материалы по этой песне:
  • Аккорды и текст

Страница создана 07.05.2016
http://primanota.ru/opeth/in-my-time-of-need-live-chords.htm
Привет, Гость.
Предлагаем пройти революционный курс по гитаре.
Подарок от PrimaNota.Ru, забирай!