PrimaNota.ru - самый крупный в мире бесплатный архив песенных текстов, аккордов, табулатур и нот


Opeth - Ghost Of Perdition - текст песни, таба, видео

Регистрация Запомнить меня
Войти через:  Facebook Google Twitter Vk Yandex Mail.ru

Opeth - Ghost Of Perdition - текст песни, таба, видео

Печатать
Просмотров: 206
Авторы музыки: Mikael Åkerfeldt
Авторы текста: Mikael Åkerfeldt
order:

h hammer on
p pull off
b bend
hb half bend
< slide up
> slipe down
~ vibrato
* artifical(pinch harmonic)
T tapping
: play this note,how long you mean

D|---------------------------------|
A|---------------------------------|
F|------------------------7-h9-h10-|
D|--------5-h7-h8-7-h8-10----------|
A|5-h7-h8--------------------------|
D|---------------------------------|

D|-------|---------------------------12---14---|
A|-------|-------------10---12-----------------|
F|9:-----|----9---12---------------------------|
D|-------|-------------------------------------|
A|-------|-------------------------------------|
D|-------|-------------------------------------|

D|14hb---------------14hb-----12----------|
A|-------------------------------13-------|
F|----------------------------------------|
D|----------------------------------------|
A|----------------------------------------|
D|----------------------------------------|

D|------------------------------------|
A|--------12hb~-----------------------|
F|------------------------------------|
D|------------------------------------|
A|------------------------------------|
D|------------------------------------|

                             T
D|------------------------------------|
A|6-------6-h7-h6-9-p7-p6-h7-14-------|
F|------------------------------------|
D|------------------------------------|
A|------------------------------------|
D|------------------------------------|

  T           T              T
D|----------------------------------------|
A|14-p7-p6-h7-16-------6h7p6-18-------6---|
F|----------------------------------------|
D|----------------------------------------|
A|----------------------------------------|
D|----------------------------------------|

D|------------------------------------|
A|/7-------8---7-------8-p7-p5---p0---|
F|------------------------------------|
D|------------------------------------|
A|------------------------------------|
D|------------------------------------|

D|-----------------------------------|
A|5---7---8---10~-----------8---10---|
F|-----------------------------------|
D|-----------------------------------|
A|-----------------------------------|
D|-----------------------------------|

D|----------10-------------------------|
A|10b------------10b-------------------|
F|-------------------------------------|
D|-------------------------------------|
A|-------------------------------------|
D|-------------------------------------|

D|-----------------------------------------|
A|-----------------------------------------|
F|--------11-----12-----14---12h14p12-11---|
D|-----------------------------------------|
A|-----------------------------------------|
D|-----------------------------------------|

D|---------------------------------------------|
A|---------------------------------------------|
F|12-p11-p9-11---9-11-h12-h14-p11-h12-p11-p9---|
D|-------------------------------------------8-|
A|---------------------------------------------|
D|---------------------------------------------|

D|--------------------------------|
A|--------------------------------|
F|--------------------------------|
D|------------------------6---7---|
A|--------------------------------|
D|--------------------------------|

D|---------------------------------|------|
A|---------------------------------|------|
F|---------------------------------|------|
D|9-p7-p6-h7-p6---6----------------|------|
A|--------------7---7-p5-p4:-------|------|
D|---------------------------------|------|

D|-----------------------------------|
A|-----------------------------------|
F|14b-----------------------12-------|
D|-----------------------------------|
A|-----------------------------------|
D|-----------------------------------|

D|------------------------------------|-------|
A|------------------------------------|-------|
F|----11-------12-p11-9-------7-------|9:-----|
D|------------------------------------|-------|
A|------------------------------------|-------|
D|------------------------------------|-------|

that's it,have fun!!!
Добавлено: 28.04.2012
Другие материалы по этой песне:

Страница создана 01.03.2012
http://primanota.ru/opeth/ghost-of-perdition-chords.htm
Привет, Гость.
Предлагаем пройти революционный курс по гитаре.
Подарок от PrimaNota.Ru, забирай!