PrimaNota.ru - самый крупный в мире бесплатный архив песенных текстов, аккордов, табулатур и нот


Opeth - Var Kommer Barnen In - аккорды и текст, видео

Регистрация Запомнить меня
Войти через:  Facebook Google Twitter Vk Yandex Mail.ru

Opeth - Var Kommer Barnen In - аккорды и текст, видео

Печатать
Просмотров: 40
Var Kommer Barnen In
Opeth
Em        Am           B
Jag säger ingenting om krig och fred
Em     Am           B/F# 
Heller inget om att tiden är ur led
Em/G      Am          B
Jag säger inget om en sårad jord
G           Am           D
Men hjärtat slår i varje ord, 
när jag säger dig

Em          Am             B
Min värd är fattig och min dag är död
Em        Am        B/F#
När barnasinnet har berövats på sin glöd
Em/G   Am                B
Då har ondskan nått sitt mål till slut
G          Am           D
Då har all kärlek sinat ut
Em
Var kommer barnen in?

G          D      B/D#
Dom bär på elden, som du en gång,
Em         D/F#               Em/G        
som jag en gång, men allt för länge sen
         Em
Allt går igen
G           D
Jag ser mot solen
    B/D#         Em      D/F#     Em/G
Och tankarna dom för mig hem till Leningrad igen

Interlude:
   Em             Am          B    
e|---------------------------------------------------------------------------|
B|-12-13-12h13p12------------------13-12-------------------------------------|
G|----------------14-12-11---------------------------------------------------|
D|-------------------------14-13---------------------------------------------|
A|---------------------------------------------------------------------------|
E|---------------------------------------------------------------------------|

   Em             Am          Em             B
e|---------------------------------------------------------------------------|
B|-12-13-12h13p12------------------------------------------------------------|
G|----------------14-12-11---------------11----------------------------------|
D|-------------------------14-14--13-14------13------------------------------|
A|---------------------------------------------------------------------------|
E|---------------------------------------------------------------------------|

   Em             Am          B
e|---------------------------------------------------------------------------|
B|-12-13-12h13p12------------------13-12-------------------------------------|
G|----------------14-12-11---------------------------------------------------|
D|-------------------------14-13---------------------------------------------|
A|---------------------------------------------------------------------------|
E|---------------------------------------------------------------------------|

   G        Am           D
e|---------------------------------------------------------------------------|
B|-12-12-12-13---------------------------------------------------------------|
G|---------------14--12--11--------------------------------------------------|
D|---------------------------------------------------------------------------|
A|---------------------------------------------------------------------------|
E|---------------------------------------------------------------------------|

Em        Am           B
Jag säger ingenting om evighet
Em        Am            B/F#
Men livet strömmar i en kontinuitet
Em/G     Am         B
Från förgånget in i framtiden
G      Am             D
Så jag frågar dig min vän
Em
Var kommer barnen in?

G          D      B/D#
Dom bär på elden, som du en gång,
Em         D/F#               Em/G        
som jag en gång, men allt för länge sen
         Em
Allt går igen
G           D
Jag ser mot solen
    B/D#         Em      D/F#     Em/G
Och tankarna dom för mig hem till Leningrad igen

Build up before the solo:
    B                 Cm+7-5
e|-------------------------------------------|
B|--4-----4-----4-----4---4-----4-----4------|
G|0-4-----4-----4-----4---4-----4-----4-----0|
D|0-4---4-4---4-4-4-4-4---4---4-4---4-4-4-4-0|
A|--2---2-2---2-2-2-2-3---3---3-3---3-3-3-3--|
E|-------------------------------------------|

I haven't got the solo yet, but the chords are:
Em Am B
Em Am Em B
Em Am B
G  Am D

Which is the same as the interlude, 
but this time you play it twice.

Back to the chorus:
Em
Var kommer barnen in?

G          D      B/D#
Dom bär på elden, som du en gång,
Em         D/F#               Em/G        
som jag en gång, men allt för länge sen
         Em
Allt går igen
G           D
Jag ser mot solen
    B/D#         Em      D/F#     Em/G
Och tankarna dom för mig hem till Leningrad igen

Build up:
e|-------------------------------------------|
B|--4-----4-----4-----4---4-----4-----4------|
G|0-4-----4-----4-----4---4-----4-----4-----0|
D|0-4---4-4---4-4-4-4-4---4---4-4---4-4-4-4-0|
A|--2---2-2---2-2-2-2-3---3---3-3---3-3-3-3--|
E|-------------------------------------------|

Interlude:
   Em             Am          B    
e|---------------------------------------------------------------------------|
B|-12-13-12h13p12------------------13-12-------------------------------------|
G|----------------14-12-11---------------------------------------------------|
D|-------------------------14-13---------------------------------------------|
A|---------------------------------------------------------------------------|
E|---------------------------------------------------------------------------|

   Em             Am          Em             B
e|---------------------------------------------------------------------------|
B|-12-13-12h13p12------------------------------------------------------------|
G|----------------14-12-11---------------11----------------------------------|
D|-------------------------14-14--13-14------13------------------------------|
A|---------------------------------------------------------------------------|
E|---------------------------------------------------------------------------|

   Em             Am          B
e|---------------------------------------------------------------------------|
B|-12-13-12h13p12------------------13-12-------------------------------------|
G|----------------14-12-11---------------------------------------------------|
D|-------------------------14-13---------------------------------------------|
A|---------------------------------------------------------------------------|
E|---------------------------------------------------------------------------|

   G        Am           D
e|---------------------------------------------------------------------------|
B|-12-12-12-13---------------------------------------------------------------|
G|---------------14--12--11--------------------------------------------------|
D|---------------------------------------------------------------------------|
A|---------------------------------------------------------------------------|
E|---------------------------------------------------------------------------|

Em        Am           B
Jag säger ingenting om krig och fred
Em     Am           B/F# 
Heller inget om att tiden är ur led
Em/G      Am          B
Jag säger inget om en sårad jord
G           Am           D
Men hjärtat slår i varje ord, 
Em
Var kommer barnen in

A new solo:
Em Am B
Em Am Em B
Em Am B
G  Am D

Repeat the solo.
Добавлено: 07.05.2016
Другие материалы по этой песне:
  • Аккорды и текст

Страница создана 07.05.2016
http://primanota.ru/opeth/var-kommer-barnen-in-chords.htm
Привет, Гость.
Предлагаем пройти революционный курс по гитаре.
Подарок от PrimaNota.Ru, забирай!