PrimaNota.ru - самый крупный в мире бесплатный архив песенных текстов, аккордов, табулатур и нот


Of Mice And Men - Glass Hearts - таба, видео

Регистрация Запомнить меня
Войти через:  Facebook Google Twitter Vk Yandex Mail.ru

Of Mice And Men - Glass Hearts - таба, видео

Печатать
Просмотров: 209
-------------------------------------------------------------------------------
                             Glass Hearts - Of Mice & Men
-------------------------------------------------------------------------------
Tabbed by:lespaulfreak123

Tuning:Drop A
      


    Intro  
B |-----------------------------|
F#|-----------------------------|
D |-----------------------------|
A |--0-0-0-0-0-0-0-0-0-0-0-0-0--|
E |--0-0-0-0-0-0-0-0-0-0-0-0-0--| 
A |--0-0-0-0-0-0-0-0-0-0-0-0-0--|
     x x x x x x x x x x x x x 

                        Intro Part 2
B |------------------| |-----------------------------|     
F#|------------------| |-----------------------------|     
D |------------------|o|-----------------------------|o 3x 
A |---0---0-0-0-0----|o|-----------------------------|o    
E |---0---0-0-0-0----| |-----------------------------|     
A |---0---0-0-0-0----| |--0-0-0-0-0-0-0-0-0-0-0-0-0--|    
          x x x x         x x x x x   x x x x x x 

    Intro Section 2 cont.
B |------------------------------------|
F#|------------------------------------|
D |------------------------------------|
A |------------------------------------|1x return to Intro Part 2 
E |------------------------------------|
A |--5-5-5-5-5-5-5-5--1-1-1-1-1-1-1-1--|


    Verse
B  |--------------------------------------------------------------------------|
F# |--------------------------------------------------------------------------|
D o|--------------------------------------------------------------------------|
A o|--------------------------------------------------------------------------|
E  |--------------------------------------------------------------------------|
A  |----0--0--12--0--0--0--1--0--0---0--0----0--0--12--0--0--5-5-5-5--1-1-1-1-|
          x   b  x     x  b  x      x  x       x  b   x


B |---------------------------------------------------------------------------|
F#|---------------------------------------------------------------------------|
D |---------------------------------------------------------------------------|o Repeat 2x
A |---------------------------------------------------------------------------|o
E |-------------------------------------------------12-12-12-12--------8-8-8-8|
A |----0--0--12--0--0--0--1--0--0---0--0----8-8-8-8-------------5-5-5-5-------|
          x  b   x     x  b  x      x  x   

Verse Part 2

B |---------------------------------------------------------------------------|
F#|---------------------------------------------------------------------------|
D |---------------------------------------------------------------------------|
A |---------------------------------------------------------------------------|
E |---------------------------------------------------------------------------|
A |--0-0-0-0-0---0-0-0-0-0-0-0---0-0-0-0-0---0-0-0-0-0-0-0---5-5-5-5-1-1-1-1--|
       x   x     x x   x   x       x   x     x x   x   x

B |---------------------------------------------------------|
F#|---------------------------------------------------------|
D |---------------------------------------------------------|
A |--0-0-0-0-0---0-0-0-0-0-0-0---0-0-0-0-0---0-0-0-0-0-0-0--|
E |--0-0-0-0-0---0-0-0-0-0-0-0---0-0-0-0-0---0-0-0-0-0-0-0--|
A |--0-0-0-0-0---0-0-0-0-0-0-0---0-0-0-0-0---0-0-0-0-0-0-0--|
     x x x x x   x x x x x x x   x x x x x   x x x x x x x 

   Chorus
B |-------------------------------------------------------------|
F#|-------------------------------------------------------------|
D |-------------------------------------------------------------|
A |--0---------------------------0------------------------------|
E |--0---------------------------0------------------------------|
A |--0----/7-7-7-7\-/7-7-7-7\----0---/7-7-7-7--7-7-5-5-3-3-2-2--|

B  |---------------------------------------------------------------------------|
F# |---------------------------------------------------------------------------|
D o|---------------------------------------------------------------------------|
A o|---0--0-0-0-0-0-0-0---0-0-0-0-0--0-0-0-0-0-0-0--0-0-0-0-0--0-0-0-0-0-0-0---|
E  |---0--0-0-0-0-0-0-0---0-0-0-0-0--0-0-0-0-0-0-0--0-0-0-0-0--0-0-0-0-0-0-0---|
A  |---0--0-0-0-0-0-0-0---0-0-0-0-0--0-0-0-0-0-0-0--0-0-0-0-0--0-0-0-0-0-0-0---|
       x  x x x x x x x   x x x x x  x x x x x x x  x x x x x  x x x x x x x

B |--------------------------|
F#|--------------------------|
D |--------------------------|o Repeat 2x
A |---0-0-0-0----------------|o
E |---0-0-0-0----------------|
A |---0-0-0-0--8-8-8-5-5-5---|
      x x x x 


Verse
B  |--------------------------------------------------------------------------|
F# |--------------------------------------------------------------------------|
D o|--------------------------------------------------------------------------|
A o|--------------------------------------------------------------------------|
E  |--------------------------------------------------------------------------|
A  |----0--0--12--0--0--0--1--0--0---0--0----0--0--12--0--0--5-5-5-5--1-1-1-1-|
           x   b  x     x  b  x      x  x       x  b   x


B |---------------------------------------------------------------------------|
F#|---------------------------------------------------------------------------|
D |---------------------------------------------------------------------------|o Repeat 3x
A |---------------------------------------------------------------------------|o
E |-------------------------------------------------12-12-12-12--------8-8-8-8|
A |----0--0--12--0--0--0--1--0--0---0--0----8-8-8-8-------------5-5-5-5-------|
          x  b   x     x  b  x      x  x   

B  |-------------------------------------------------|
F# |-------------------------------------------------|
D o|-------------------------------------------------|o Repeat 4x 
A o|--0-0-0-0--0-0-0-0-0-0--0-0-0-0-0-0---0-0--------|o
E  |--0-0-0-0--0-0-0-0-0-0--0-0-0-0-0-0---0-0-0-0-0--|
A  |--0-0-0-0--0-0-0-0-0-0--0-0-0-0-0-0---0-0-1-1-1--|
      x x x x  x x x x x x  x x x x x x   x x x x x

   Chorus alt.
B |-------------------------------------------------------------|
F#|-------------------------------------------------------------|
D |-------------------------------------------------------------|
A |--0---------------------------0------------------------------|
E |--0---------------------------0------------------------------|
A |--0----/7-7-7-7\-/7-7-7-7\----0---/7-7-7-7--7-7-5-5-3-3-2-2--|

Break

B  |-------------|
F# |-------------|
D o|-------------|o Repeat 3x
A o|---0-0-0-0---|o
E  |---0-0-0-0---|
A  |---0-0-0-0---|

Ending
B  |---------------------------------------------------------------------------|
F# |---------------------------------------------------------------------------|
D o|---------------------------------------------------------------------------|
A o|---------------------------------------------------------------------------|
E  |---------------------------------------------------------------------------|
A  |---0--0-0-0-0-0-0-0---0-0-0-0-0--0-0-0-0-0-0-0--0-0-0-0-0--0-0-0-0-0-0-0---|
       x  x x x x x x x   x x x x x  x x x x x x x  x x x x x  x x x x x x x

B |--------------------------|
F#|--------------------------|
D |--------------------------|o Repeat 4x
A |--------------------------|o 
E |--------------------------|
A |---0-0-0-0--8-8-8-5-5-5---|

On the final repeat, play the fifth fret only once




************************************

| /   slide up
| \   slide down
| x   Mute note
| b   Bend


************************************
Добавлено: 24.05.2015
Другие материалы по этой песне:
  • Аккорды и текст

Страница создана 24.05.2015
http://primanota.ru/of-mice-and-men/glass-hearts-chords.htm
Привет, Гость.
Предлагаем пройти революционный курс по гитаре.
Подарок от PrimaNota.Ru, забирай!