PrimaNota.ru - самый крупный в мире бесплатный архив песенных текстов, аккордов, табулатур и нот


Of Mice And Men - Something To Hide - таба, видео

Регистрация Запомнить меня
Войти через:  Facebook Google Twitter Vk Yandex Mail.ru

Of Mice And Men - Something To Hide - таба, видео

Печатать
Просмотров: 110
-------------------------------------------------------------------------------
                             SOMETHING TO HIDE - Of Mice and Men
-------------------------------------------------------------------------------
Tabbed by: lespaulfreak123


Tuning: Drop C (CGCFAD)

INTRO

D|-------------------------------------------------------------------------|
A|-------------------------------------------------------------------------|
F|-------------------------------------------------------------------------|
C|-------------------------------------------------------------------------|
G|--5-7-7--5-7-7--5-7--5-7-7--5-7-7--5-7--5-7-7--5-7-7--5-7--5-7-7--5-7-5--|
C|-------------------------------------------------------------------------|
  
D|--------------------------------------------------------------------------|
A|--------------------------------------------------------------------------|
F|--------------------------------------------------------------------------|
C|--------------------------------------------------------------------------|
G|---5-7-7--5-7-7--5-7--5-7-7--5-7-7--5-7--5-7-7--5-7-7--5-7--5-7-7--5-7(b)-|
C|--------------------------------------------------------------------------|

CHORUS

D|---------------------------------------------------------------------------|
A|---------------------------------------------------------------------------|
F|---------------------------------------------------------------------------|
C|--0-2-2--0-2-2--0-2--0-2-2--0-2-2--0-2--0-2-2--0-2-2--0-2---5--0-----------|
G|--0-2-2--0-2-2--0-2--0-2-2--0-2-2--0-2--0-2-2--0-2-2--0-2---5--0-----------|
C|--0-2-2--0-2-2--0-2--0-2-2--0-2-2--0-2--0-2-2--0-2-2--0-2---5--0-----------|

D|---------------------------------------------------------------------------|
A|---------------------------------------------------------------------------|
F|---------------------------------------------------------------------------|
C|--0-2-2--0-2-2--0-2--0-2-2--0-2-2--0-2--0-2-2--0-2-2--0-2---5--7-----------|
G|--0-2-2--0-2-2--0-2--0-2-2--0-2-2--0-2--0-2-2--0-2-2--0-2---5--7-----------|
C|--0-2-2--0-2-2--0-2--0-2-2--0-2-2--0-2--0-2-2--0-2-2--0-2---5--7-----------|

D|---------------------------------------------------------------------------|
A|---------------------------------------------------------------------------|
F|---------------------------------------------------------------------------|
C|--0-2-2--0-2-2--0-2--0-2-2--0-2-2--0-2--0-2-2--0-2-2--0-2---5--0-----------|
G|--0-2-2--0-2-2--0-2--0-2-2--0-2-2--0-2--0-2-2--0-2-2--0-2---5--0-----------|
C|--0-2-2--0-2-2--0-2--0-2-2--0-2-2--0-2--0-2-2--0-2-2--0-2---5--0-----------|

Then, 


D|------|        D|-----|
A|------|        A|-----|
F|------|        F|-----|
C|--12--| x16    C|--9--| x16
G|--10--|        G|--7--|
C|--10--|        C|--7--|

Harmonics after Chorus


D|----------
A|----------
F|-----(5)--
C|--(5)-----
G|----------
C|----------

VERSE

D|-------------------------------------|
A|-------------------------------------|
F|-------------------------------------|
C|-------------------------------------| x4
G|-------(7)---------------------------|
C|--2-2-------2-2-2-2---2-2---2-2-2-2--|
          +

D|-------------------------------------|
A|-------------------------------------|
F|-------------------------------------|
C|-------------------------------------| x2
G|-------(7)---------------------------|
C|--5-5-------5-5-5-5---5-5---5-5-5-5--|
          +

D|-------------------------------------|
A|-------------------------------------|
F|-------------------------------------|
C|-------------------------------------| x2
G|-------(7)---------------------------|
C|--2-2-------2-2-2-2---2-2---2-2-2-2--|
          +


Harmonics after verse


D|--12---------7------|
A|-----12--------7----|
F|--------12-------7--|
C|--------------------|
G|--------------------|
C|--------------------|


Repeat Chorus and end with 


D|-------------------------|
A|-------------------------|
F|-------------------------|
C|-------------------------|
G|-------------------------|
C|--0-0-0---0-0-0-0---0-0--|

Repeat Verse, end with


D|------------------------------------|
A|------------------------------------|
F|------------------------------------|
C|--------12-------9---------6-----6--| x2
G|-----10--------7---------2-----2----|
C|--10---------7---------2-----2------|



Repeat Chorus


BREAKDOWN

D|---------------------------------|
A|---------------------------------|
F|--b3-----------------------------|
C|-----0-0-0-0---0---0-0--0-0-0-0--|  x16
G|-----0-0-0-0---0---0-0--0-0-0-0--|
C|-----0-0-0-0---0---0-0--0-0-0-0--|

Repeat Chorus, but play only 2x in.

************************************

| /   slide up
| \   slide down
| h   hammer-on
| p   pull-off
| ~   vibrato
| +   harmonic
| x   Mute note
| b   Bend
| pb  Pre-bend
| br  Bend release
| pbr Pre-bend release
| brb Bend release bend

************************************
Добавлено: 22.09.2015
Вам также может быть интересно:
Другие материалы по этой песне:

Страница создана 22.09.2015
http://primanota.ru/of-mice-and-men/something-to-hide-chords.htm
Привет, Гость.
Предлагаем пройти революционный курс по гитаре.
Подарок от PrimaNota.Ru, забирай!