PrimaNota.ru - самый крупный в мире бесплатный архив песенных текстов, аккордов, табулатур и нот


Of Mice And Men - John Deux Trois - таба, видео

Регистрация Запомнить меня
Войти через:  Facebook Google Twitter Vk Yandex Mail.ru

Of Mice And Men - John Deux Trois - таба, видео

Печатать
Просмотров: 64
Уроки эстрадного вокала в Санкт-Петербурге
-------------------------------------------------------------------------------
                            John Deux Trois - Of Mice & Men
-------------------------------------------------------------------------------
Tabbed by: Aiden Bond
E-mail: Aidster1@live.co.uk

Tuning:C# G# C# F# A# D#

I had a lot of fun tabbing this song so I hope you enjoy it, I did my best so sorry for any mistakes if there
is any. The title of this song refers to the bible: John, 2-3 the bit where Jesus turns water into wine.
this song reflects the bands experience with sin and how they have come over it and how they 
incorporate religion
into there lives, I think that is the reasoning behind the song title. Anyway, have fun learning this.
I advise you listen to the song whilst you learn it and play along or at
least have listened to the song before.

Intro 
Both Guitars
D#|-----------------------------------xxxx----------------------------------------|
A#|-----------------------------------xxxx----------------------------------------|
F#|-------------------------0~--------xxxx----------------------------------------|
C#|-2~---------2~--------22-4~--------xxxx----------------------------------------|
G#|-2~---------2~--------22-----------xxxx----------------------------------------|
C#|-2~---------2~--------22-----------xxxx----------------------------------------|
                         ..
D#|---------------------------------------------------------------------------|
A#|---------------------------------------------------------------------------|
F#|----000000000000000----000000000000000-------------------------------------|
C#|-22-444444444444444-22-444444444444444-------------------------------------|
G#|-22-----------------22-----------------------------------------------------|
C#|-22-----------------22-----------------------------------------------------|




Chorus
x3                           End first chorus with this
D#|----------------------------|-----------------------------------------------|
A#|----------------------------|-----------------------------------------------|
F#|----------------------------|-----------------------------------------------|
C#|-7------5------0------2-----|--2-2-2-2-2-2----------------------------------|
G#|-7-x8---5-x8---0-x8---2-x8--|--2-2-2-2-2-2----------------------------------|
C#|-7------5------0------2-----|--2-2-2-2-2-2----------------------------------|




Verse 1
Guitar 1
Repeat this a bunch of times
over all of guitar 2 
bits in this part                  Part way through this happens
D#|--------------------------------|----------------------|
A#|--0-h5-h8-----------------------|---0-h5-h8-----*7-----|
F#|--------------------------------|----------------------|
C#|--------------------------------|----------------------|
G#|--------------------------------|----------------------|
C#|--------------------------------|----------------------|
Guitar 2
D#|-----------------xxxx----------------------------------------------------------|
A#|-----------------xxxx----------------------------------------------------------|
F#|-----------------xxxx----------------------------------------------------------|
C#|-2-2-2------2-2--xxxx--2-22---------2------0-----------------------------------|
G#|-2-2-2-2222-2-2--xxxx--2-22----2222-2-2222-0-----------------------------------|
C#|-2-2-2-2222-2-2--xxxx--2-22----2222-2-2222-0-----------------------------------|
          ....                    ....   .... 
D#|-----------------xxxx---------------------------------------------------------|
A#|-----------------xxxx-----------------------*7--------------------------------|
F#|-----------------xxxx---------------------------------------------------------|
C#|-2-2-2------2-2--xxxx--2-22---------2-----------------------------------------|
G#|-2-2-2-2222-2-2--xxxx--2-22----2222-2-2222------------------------------------|
C#|-2-2-2-2222-2-2--xxxx--2-22----2222-2-2222------------------------------------|
          ....                    ....   ....
D#|---------------------------------------------------------------------------|
A#|---------------------------------------------------------------------------|
F#|---------------------------------------------------------------------------|
C#|-2-2-2------2-2----2-22---------2------0-----------------------------------|
G#|-2-2-2-2222-2-2----2-22----2222-2-2222-0-----------------------------------|
C#|-2-2-2-2222-2-2----2-22----2222-2-2222-0-----------------------------------|
          ....                ....   ....

Verse 1 Part 2
Both Guitars
D#|---------------------------------------------------------------------------|
A#|---------------------------------------------------------------------------|
F#|---------------------------------------------------------------------------|
C#|---------------------------------------------------------------------------|
G#|-0-0-0-0000-0-0-0-----0-00-0-00-----0000-0-----0000-0----------------------|
C#|-1-1-1-1111-1-1-1-----1-11-1-11-----1111-1-----1111-1----------------------|
    . . . .... . . .     . .. . ..     .... .     .... .
Verse 1 Part 3
Both Guitars
D#|---------------------------------------------------------------------------|
A#|---------------------------------------------------------------------------|
F#|---------------------------------------------------------------------------|
C#|-2-2-2------2-2----2-22---------2------0-----------------------------------|
G#|-2-2-2-2222-2-2----2-22----2222-2-2222-0-----------------------------------|
C#|-2-2-2-2222-2-2----2-22----2222-2-2222-0-----------------------------------|
          ....                ....   ....
Verse 1 Part 4
Both Guitars
D#|---------------------------------------------------------|--------------------------------|
A#|---------------------------------------------------------|--------------------------------|
F#|------------------------------------------------0-00-----|-------------0-00---------------|
C#|------------------------------------------------4-44-0-0-|-------------4-44----------0-0--|
G#|-------------------------2---------------------------0-0-|---------------------------0-0--|
C#|-2-0-2-5-2-0-----2-0-2-5---5-2-0----2-0-2-5-2-0------0-0-|-2-0-2-5-2-0-------2-0-2---0-0--|


Repeat Chorus


Breakdown Part 1 
Guitar 2
D#|---------------------------------------------------------------------------|
A#|---------------------------------------------------------------------------|
F#|---------------------------------------------------------------------------|
C#|-2~------------------------------2-----------------------------------------|
G#|-2~------------------------------2-----------------------------------------|
C#|-2~------------------------------2-----------------------------------------|
Guitar 1
D#|---------------------------------------------------------------------------|
A#|---------------------------------------------------------------------------|
F#|-0--0--0--0--0--0--0--0--0--0-------------0--0--0--0--0--0--0--0--0--0--0--|
C#|--4--4--4--4--4--4--4--4--4--4-------------4--4--4--4--4--4--4--4--4--4--4-|
G#|---------------------------------------------------------------------------|
C#|---------------------------------------------------------------------------|

Breakdown Part 2
Guitar 2 (I can't make out guitar 1 sorry)
D#|---------------------------------------------------------------------------|
A#|---------------------------------------------------------------------------|
F#|---------------------------------------------------------------------------|
C#|---------------------------------------------------------------------------|
G#|-2-2-2-22---2-22----2-2222----2-2-2-22---2-22-----2-2222-------------------|
C#|-2-2-2-22---2-22----2-2222----2-2-2-22---2-22-----2-2222--------~----------|
    . . . ..   . ..    . ....    . . . ..   . ..     . ....
D#|---------------------------------------------------------------------------|
A#|---------------------------------------------------------------------------|
F#|---------------------------------------------------------------------------|
C#|-----------2~--------------------------------------------------------------|
G#|-2-2-2-22--2~------2-22---2-2222-------------------------------------------|
C#|-2-2-2-22--2~------2-22---2-2222-------------------------------------------|
    . . . ..          . ..   . ....
D#|---------------------------------------------------------------------------|
A#|---------------------------------------------------------------------------|
F#|---------------------------------------------------------------------------|
C#|---------------------------------------------------------------------------|
G#|-2-2-2-22---2-22----2-2222----2-2-2-22---2-22-----2-2222-------------------|
C#|-2-2-2-22---2-22----2-2222----2-2-2-22---2-22-----2-2222--------~----------|
    . . . ..   . ..    . ....    . . . ..   . ..     . ....
Breakdown Part 3
Both Guitars
D#|---------------------------------------------------------------------------|
A#|---------------------------------------------------------------------------|
F#|---------------------------------------------------------------------------|
C#|-7~-----5~-----0~-----2~---------------------------------------------------|
G#|-7~-----5~-----0~-----2~---------------------------------------------------|
C#|-7~-----5~-----0~-----2~---------------------------------------------------|

Breakdown Part 4
Guitar 1        Guitar 2  
D#|-------------|--------------------|
A#|-------------|--------------------|
F#|-------------|--------------------|
C#|-------------|--------------------|
G#|-222222------|---222222-----------|
C#|-222222------|---222222-----------|
    ......          ...... 
Breakdown Part 5 
Both Guitars
x4
D#|---------------------------------------------------------------------------|
A#|---------------------------------------------------------------------------|
F#|----------------000------------444-----------------------------------------|
C#|----------------444------------888-----------------------------------------|
G#|-222222222222--------------------------------------------------------------|
C#|-222222222222--------------------------------------------------------------|
    ............
Outro 
Both Guitars
X3
D#|---------------------------------------------------------------------------|
A#|---------------------------------------------------------------------------|
F#|---------------------------------------------------------------------------|
C#|---------------------------------------------------------------------------|
G#|-222222222222--------------------------------------------------------------|
C#|-222222222222--------------------------------------------------------------|
    ............
End With
D#|---------------------------------------------------------------------------|
A#|---------------------------------------------------------------------------|
F#|---------------------------------------------------------------------------|
C#|-------------2-------------------------------------------------------------|
G#|-22222222222-2-------------------------------------------------------------|
C#|-22222222222-2-------------------------------------------------------------|
    ...........

************************************

| .   palm mute
| /   slide up
| \   slide down
| h   hammer-on
| p   pull-off
| ~   let ring
| +   harmonic
| x   Mute note
| b   Bend
| pb  Pre-bend
| br  Bend release
| pbr Pre-bend release
| brb Bend release bend

************************************

"John Deux Trois"

I've said it once or twice,
I'm coming down to show you the way to live with my hand.

Inner me, I know you are killing me from inside.
You can laugh, you can laugh but don't waste my time.
You pessimistic, you cannibal.

Don't believe me, cause I'm already dead.
Don't believe me, I'll take to the bitter end.

I've been waiting to show you life abundantly.
So, I'll end this talk of who I really am and who I really ought to be.

I won't let you fall back down to the ways that you wanted to escape.
My love, take my hand, I'll show to you everything.
It's not who I am and who you want to.

Inner me, I know you are killing me from inside.
You can laugh, you can laugh but don't waste my time.
You pessimistic, you cannibal.

For the sake of failing you, my God still lives.
Roll with the pack my God, who will make all wrongs right again?
Roll with the pack my son, who will make wrongs right again?

I'll show you grace like you never have seen.
I'll show you grace. 
Добавлено: 27.03.2016
Другие материалы по этой песне:
  • Аккорды и текст

Страница создана 27.03.2016
http://primanota.ru/of-mice-and-men/john-deux-trois-chords.htm
Привет, Гость.
Предлагаем пройти революционный курс по гитаре.
Подарок от PrimaNota.Ru, забирай!