PrimaNota.ru - самый крупный в мире бесплатный архив песенных текстов, аккордов, табулатур и нот


Oceans Ate Alaska - Blue Lungs - таба, видео

Регистрация Запомнить меня
Войти через:  Facebook Google Twitter Vk Yandex Mail.ru

Oceans Ate Alaska - Blue Lungs - таба, видео

Печатать
Просмотров: 69
-------------------------------------------------------------------------------
                             BLUE LUNGS (ACOUSTIC) - Oceans Ate Alaska
----------------------------------------------------------------------------
Tabbed by: ohyouknow
E-mail: billstrauss973@gmail.com

Tuning:Drop C#

Guitar 1 Verse
D#|--------8----8--8--------------5--------5-------8p5---8--8-----------5-----|
A#|-----6--6-----6---6-------6----6---6---6-6---6-----6---6--6-----6----6---6-|
F#|------7-7----------5-------7---7----7-7-------------7------5-----7---7----7|
C#|--------5----------------------8-----8-------------------------------8-----|
G#|---5----5----------------------5------------5------------------------5-----|
C#|--------x---------------5------5-------------------------------5-----5-----|
                                   
D#|---5-|
A#|--6-6|
F#|-7---|  X2  After one time through of this part start guitar 2 starts
C#|8----|
G#|-----|
C#|-----|

Guitar 2 Intro
D#|-------8p5------------8p5--------5---8/10---------------------------|
A#|--6p5------6h8---6p5------6h8-----6-------8/10--10/11--11\10--10\8-8|
F#|-----8--------------8--------------7--------------------------------|   X2
C#|--------------------------------------------------------------------|       
G#|--------------------------------------------------------------------|
C#|--------------------------------------------------------------------|

Both Guitars
D#|--x--x---x--x-----5----x--x---x--x----5|
A#|--10-10--11-11----5----10-10--11-11---6|
F#|--10-10--10-10----5----10-10--10-10---5|
C#|--8--8---8--8-----x----8--8---8--8----0|
G#|--x--x---x--x-----x----x--x---x--x----x|
C#|--x--x---x--x-----x----x--x---x--x----x|

Guitar 1 Verse 1 (Same as intro)
D#|--------8----8--8--------------5--------5-------8p5---8--8-----------5-----|
A#|-----6--6-----6---6-------6----6---6---6-6---6-----6---6--6-----6----6---6-|
F#|------7-7----------5-------7---7----7-7-------------7------5-----7---7----7|
C#|--------5----------------------8-----8-------------------------------8-----|
G#|---5----5----------------------5------------5------------------------5-----|
C#|--------x---------------5------5-------------------------------5-----5-----|

D#|---5-|
A#|--6-6|
F#|-7---|   X2
C#|8----|  
G#|-----|
C#|-----|

Guitar 2 Verse 1 (Same as intro)
D#|-------8p5------------8p5--------5---8/10---------------------------|
A#|--6p5------6h8---6p5------6h8-----6-------8/10--10/11--11\10--10\8-8|
F#|-----8--------------8--------------7--------------------------------|  X4
C#|--------------------------------------------------------------------|       
G#|--------------------------------------------------------------------|
C#|--------------------------------------------------------------------|

Guitar 1 Chorus
D#|-x-x-x-x-x-x-x-x-x-x-x-x-x-x-x-x-x-x-x-x-x-x-x-x-x-x--x-x-x-x-x-x|
A#|-3-3-3-3-3-3-3-3-3-3-3-3-3-3-3-3-9-9-9-9-9-9-9-9-9-9--5-5-5/6\5-5|
F#|-x-x-x-x-x-x-x-x-x-x-x-x-x-x-x-x-x-x-x-x-x-x-x-x-x-x--x-x-x-x-x-x|  X3
C#|-3-3-3-3-3-3-3-3-3-3-3-3-3-3-3-3-7-7-7-7-7-7-7-7-7-7--5-5-5-5-5-5|
G#|-1-1-1-1-1-1-1-1-1-1-1-1-1-1-1-1-5-5-5-5-5-5-5-5-5-5--3-3-3-3-3-3|
C#|-x-x-x-x-x-x-x-x-x-x-x-x-x-x-x-x-x-x-x-x-x-x-x-x-x-x--x-x-x-x-x-x|
    1 + 2 + 3 + 4 + 5 + 6 + 7 + 8 + 1 + 2 + 3 + 4 + 5 +  1 + 2 + 3 + 

Guitar 2 Chorus
D#|-----------------------------------------------------------------|
A#|-6-6-6-6-6-6-6-6-5-5-5-5-8-8-8-8----------------------6-6-6/7\6-6|
F#|-x-x-x-x-x-x-x-x-x-x-x-x-x-x-x-x-7-7-7-7-7-7-7-7-7-7--x-x-x-x-x-x|
C#|-3-3-3-3-3-3-3-3-2-2-2-2-5-5-5-5-x-x-x-x-x-x-x-x-x-x--2-2-2/3\2-2|  X3
G#|-x-x-x-x-x-x-x-x-x-x-x-x-x-x-x-x-5-5-5-5-5-5-5-5-5-5--x-x-x-x-x-x|
C#|-x-x-x-x-x-x-x-x-x-x-x-x-x-x-x-x-x-x-x-x-x-x-x-x-x-x--x-x-x-x-x-x|
    1 + 2 + 3 + 4 + 5 + 6 + 7 + 8 + 1 + 2 + 3 + 4 + 5 +  1 + 2 + 3 +

Guitar 1 Verse 2
D#|-----------|
A#|---6---6---|
F#|--5---5--5-| X8
C#|-8---9----9|
G#|-----------|
C#|-----------|

Guitar 2 Verse 2
D#|-----------------|
A#|-----13----13--13|
F#|---10-----9--10--| X8
C#|-----------------|
G#|-12-----12-------|
C#|-----------------|

Chorus: Repeat Chorus section but 5 times instead of three
Outro: Repeat Verse 2

End on:
Guitar 1
D#|-8-|
A#|-6-|
F#|-5-|
C#|-7-|
G#|-5-|
C#|-x-|

Guitar 2
D#|-x--|
A#|-13-|
F#|-10-|
C#|-x--|
G#|-12-|
C#|-x--|

************************************

| /   slide up
| \   slide down
| h   hammer-on
| p   pull-off
| ~   vibrato
| +   harmonic
| x   Mute note
| b   Bend
| pb  Pre-bend
| br  Bend release
| pbr Pre-bend release
| brb Bend release bend

************************************
Добавлено: 27.05.2016
Другие материалы по этой песне:
  • Аккорды и текст

Страница создана 27.05.2016
http://primanota.ru/oceans-ate-alaska/blue-lungs-chords.htm
Привет, Гость.
Предлагаем пройти революционный курс по гитаре.
Подарок от PrimaNota.Ru, забирай!