PrimaNota.ru - самый крупный в мире бесплатный архив песенных текстов, аккордов, табулатур и нот


Oceans Ate Alaska - Vultures And Sharks - таба, видео

Регистрация Запомнить меня
Войти через:  Facebook Google Twitter Vk Yandex Mail.ru

Oceans Ate Alaska - Vultures And Sharks - таба, видео

Печатать
Просмотров: 305
Уроки эстрадного вокала в Санкт-Петербурге
Hi guys!
I've transcribed this tab since no one has already do it.
It took me several hours 'cause i've learned it by ear.
I'm working on the full guitar pro file and i'll release it as soon as i could!

TUNING: 6 Strings Drop B 432 Hz (you could also use the Drop B 440 Hz,but Oceans Ate Alaska use this tuning.)

Intro   BPM: 160
 
       <   <   <   <   <   <   <   <     
       E   E   E   E   E   E   E   E    
C#||----------------------------------|
G#||----------------------------------|
E ||----------------------------------|    
B ||----------------------------------|
F#||----------12--17----------12--17--| 
B ||--12--15----------12--15----------|           x3


 0:05 
"They came to conquer..."

                                      
   E   E   E   E   E   E   E   E      E   E   E   E   E   E   E   E   
|----------------------------------|----------------------------------|
|----------------------------------|------------------15------15--17--|
|----------------------------------|--------------14------14----------|
|----------------------------------|--14------14----------------------|
|----------12--17----------12--17--|------17--------------------------|    x3
|--12--15----------12--15----------|----------------------------------|



   E   E   E   E   E   E   E   E      E   E   E   E   E   E   E   E  
|----------------------------------|-----------------------------------|
|----------------------------------|------------------18--17--13--17---|
|----------------------------------|--------------14-------------------|   
|----------------------------------|--14------14-----------------------|
|----------12--17----------12--17--|------17---------------------------|
|--12--15----------12--15----------|-----------------------------------| 


 0:17 
"They came to conquer..."


   E   E   E   E   E   E   E   E      E   E   E   E   E   E   E   E   
|----------------------------------|----------------------------------|
|----------------------------------|------------------15------15--17--|
|----------------------------------|--------------14------14----------|
|----------------------------------|--14------14----------------------|
|----------12--17----------12--17--|------17--------------------------|    x3
|--12--15----------12--15----------|----------------------------------|



   E   E   E   E   E   E   E   E      E   E   E   E   E   E   E   E  
|----------------------------------|-----------------------------------|
|----------------------------------|------------------18--17--13--17---|
|----------------------------------|--------------14-------------------|   
|----------------------------------|--14------14-----------------------|
|----------12--17----------12--17--| ------17--------------------------|
|--12--15----------12--15----------| ----------------------------------|             


Breakdown
0:29

                                               |----3----|     
   E  E  E  E  S E.  S S S S    E  S S S S S S Q    Q    Q    
|----------------------------|--------------------------------|
|----------------------------|--------------------------------|
|----------------------------|--------------------------------|
|----------------------------|--------------------------------|
|----------------------------|-----------------0----0----0----|
|--0--0--0--0----0---0-0-0-0-|-----0-0---0-0-0-1----1----1----|


                                                 |----3----|    
   S S S E.  E  S S S S S S S S   E  S S S S S S Q    Q    Q     
|-------------------------------|--------------------------------|
|-------------------------------|--------------------------------|
|-------------------------------|--------------------------------|
|-------------------------------|--------------------------------|
|--L-L-L------------------------|-----------------0----0----0----|
|--L-L-L-0---0--0-0-----0-0-0-0-|-----0-0-----0-0-1----1----1----|


0:35
                                             
    W                    H         H           W                     H.            Q     
|--------------------|------------15--------|---------------------|----------------------|
|--------------------|--13------------------|--17b----------------|--13------------------|
|--14----------------|----------------------|---------------------|----------------12----|
|--------------------|----------------------|---------------------|----------------------|
|--------------------|----------------------|---------------------|----------------------|
|--------------------|----------------------|---------------------|----------------------|


0:41
"Some say we brought..."

    E   E   E   E   E   E   E   E     E   E   E   E   E   E   E   E   
|----------------------------------|----------------------------------|
|----------------------------------|----------------------------------|
|--14--14--14--14--14--14--14--14--|--14--14--14--14--14--14--14--14--|
|----------------------------------|----------------------------------|
|----------------------------------|----------------------------------|
|----------------------------------|----------------------------------|


    E   E   E   E   E   E   E   E      E   E   E   E   E   E   E   E   
|----------------------------------|----------------------------------|
|----------------------------------|----------------------------------|
|--17--17--17--17--17--17--17--17--|--16--16--16--16--16--16--16--16--|
|----------------------------------|----------------------------------|
|----------------------------------|----------------------------------|
|----------------------------------|----------------------------------|


   S  S  S  S  S  S  S  S  S  S  S  S  S  S  S  S  
|--------------------------------------------------|
|--------------------------------------------------|
|--14-14-14-14-14-14-14-14-14-14-14-14-14-14-14-14-|
|--------------------------------------------------|
|--------------------------------------------------|
|--------------------------------------------------|


   S  S  S  S  S  S  S  S  S  S  S  S  S  S  S  S  
|--------------------------------------------------|
|--------------------------------------------------|
|--14-14-14-14-14-14-14-14-14-14-14-14-14-14-14-14-|
|--------------------------------------------------|
|--------------------------------------------------|
|--------------------------------------------------|


   S  S  S  S  S  S  S  S  S  S  S  S  S  S  S  S  
|--------------------------------------------------|
|--17-17-17-17-17-17-17-17-17-17-17-17-17-17-17-17-|
|--------------------------------------------------|
|--------------------------------------------------|
|--------------------------------------------------|
|--------------------------------------------------|


   S  S  S  S  S  S  S  S  S  S  S  S  S  S  S  S  
|--------------------------------------------------|
|--12-12-12-12-12-12-12-12-12-12-12-12-12-12-12-12-|
|--------------------------------------------------|
|--------------------------------------------------|
|--------------------------------------------------|
|--------------------------------------------------|


0:53
Whispers in the wind..."


    E   E   E   E   E   E   E   E      E   E   E   E   E   E   E   E   
|----------------------------------|----------------------------------|
|----------------------------------|----------------------------------|
|--14--14--14--14--14--14--14--14--|--14--14--14--14--14--14--14--14--|
|----------------------------------|----------------------------------|
|----------------------------------|----------------------------------|
|----------------------------------|----------------------------------|


    E   E   E   E   E   E   E   E      E   E   E   E   E   E   E   E   
|----------------------------------|----------------------------------|
|----------------------------------|----------------------------------|
|--17--17--17--17--17--17--17--17--|--16--16--16--16--16--16--16--16--|
|----------------------------------|----------------------------------|
|----------------------------------|----------------------------------|
|----------------------------------|----------------------------------|

    W                    H         H           W                     H.            Q     
|--------------------|------------15--------|---------------------|----------------------|
|--------------------|--13------------------|--17b----------------|--13------------------|
|--14----------------|----------------------|---------------------|----------------12----|
|--------------------|----------------------|---------------------|----------------------|
|--------------------|----------------------|---------------------|----------------------|
|--------------------|----------------------|---------------------|----------------------|


    E   E   E   E   E   E   E   E     E   E   E   E   E   E   E   E   
|----------------------------------|----------------------------------|
|----------------------------------|----------------------------------|
|--14--14--14--14--14--14--14--14--|--14--14--14--14--14--14--14--14--|
|----------------------------------|----------------------------------|
|----------------------------------|----------------------------------|
|----------------------------------|----------------------------------|


    E   E   E   E   E   E   E   E      E   E   E   E   E   E   E   E   
|----------------------------------|----------------------------------|
|----------------------------------|----------------------------------|
|--17--17--17--17--17--17--17--17--|--16--16--16--16--16--16--16--16--|
|----------------------------------|----------------------------------|
|----------------------------------|----------------------------------|
|----------------------------------|----------------------------------|


Breakdown   BPM: 120
1:11
"Burn..."

                                          |----3----|    
  E  E  E  E  E  E  E  E      E  E  E  E  Q    Q    Q    
|--------------------------|-----------------------------|
|--------------------------|------------------------0----|
|--------------------------|------------------------0----|
|--0--0--0--0--0-----0--0--|--0-----0-----0----0----0----|
|--0--0--0--0--0-----0--0--|--0-----0-----0----0---------|
|--0--0--0--0--0-----0--0--|--0-----0-----1----1---------|


            |-3-|       |--3--|             |-3-| |----3----|     
   E  E  E  S S S E  E  E  E  E    E  E  E  S S S Q    Q    Q     
|--L-----------------------------|--------------------------------|
|--L-----------------------------|--------------------------------|
|--L-----------------------------|--------------------------------|
|--L--0--0--0-0-0-0-----0--0--0--|--0-----0--0-0-0-0----0----0----|
|-----0--0--0-0-0-0-----0--0--0--|--0-----0--0-0-0-0----0----0----|
|-----0--0--0-0-0-0-----0--0--0--|--0-----0--0-0-0-1----1----1----|


                                                  
                           |----3----|              
   E  E  E  E   H          Q    Q    Q    Q    Q     
|------------------------|---------------------------|
|--------------10\-------|---------------------------|
|--------------15\-------|---------------------------|
|--0--0--0--0------------|--0----0----0--------------|
|--0--0--0--0------------|--0----0----0--------------|
|--0--0--0--0------------|--0----0----0--------------|


                                   
    Q     Q     W                  
|--17----15-----------------------|
|--------------15~----------------|
|---------------------------------|
|---------------------------------|
|---------------------------------|
|---------------------------------|


Chrous  BPM:160
1:26
"Vultures above..."


   E   E   E   E   E   E   E   E      E   E   E   E   E   E   E   E   
|--15------15------15------15------|--13------13------13------13------|
|------15------15------15------15--|------15------15------15------15--|
|----------------------------------|----------------------------------|
|----------------------------------|----------------------------------|
|----------------------------------|----------------------------------|
|----------------------------------|----------------------------------|


   E   E   E   E   E   E   E   E      E   E   E   E   E   E   E   E   
|--12------12------12------12------|----------------------------------|
|------15------15------15------15--|------15------15------15------15--|
|----------------------------------|--14------14------14------14------|
|----------------------------------|----------------------------------|
|----------------------------------|----------------------------------|
|----------------------------------|----------------------------------|    x2
 

1:38
"Circling us from head..."


   S  S  S  S  S  S  S  S  S  S  S  S  S  S  S  S  
|--------------------------------------------------|
|--------------------------------------------------|
|--14-14-14-14-14-14-14-14-14-14-14-14-14-14-14-14-|
|--------------------------------------------------|
|--------------------------------------------------|
|--------------------------------------------------|


    S  S  S  S  S  S  S  S  S  S  S  S  S  S  S  S  
|--------------------------------------------------|
|--13-13-13-13-13-13-13-13-20-20-20-20-20-20-20-20-|
|--------------------------------------------------|
|--------------------------------------------------|
|--------------------------------------------------|
|--------------------------------------------------|

 
    S  S  S  S  S  S  S  S  S  S  S  S  S  S  S  S  
|--------------------------------------------------|
|--17-17-17-17-17-17-17-17-17-17-17-17-17-17-17-17-|
|--------------------------------------------------|
|--------------------------------------------------|
|--------------------------------------------------|
|--------------------------------------------------|


    S  S  S  S  S  S  S  S  S  S  S  S  S  S  S  S  
|--------------------------------------------------|
|--13-13-13-13-13-13-13-13-13-13-13-13-------------|
|--------------------------------------12-12-12-12-|
|--------------------------------------------------|
|--------------------------------------------------|
|--------------------------------------------------|


   S  S  S  S  S  S  S  S  S  S  S  S  S  S  S  S  
|--------------------------------------------------|
|--------------------------------------------------|
|--14-14-14-14-14-14-14-14-14-14-14-14-14-14-14-14-|
|--------------------------------------------------|
|--------------------------------------------------|
|--------------------------------------------------|


   S  S  S  S  S  S  S  S  S  S  S  S  S  S  S  S  
|--------------------------------------------------|
|--13-13-13-13-13-13-13-13-20-20-20-20-20-20-20-20-|
|--------------------------------------------------|
|--------------------------------------------------|
|--------------------------------------------------|
|--------------------------------------------------|


    S  S  S  S  S  S  S  S  S  S  S  S  S  S  S  S  
|--------------------------------------------------|
|--17-17-17-17-17-17-17-17-17-17-17-17-17-17-17-17-|
|--------------------------------------------------|
|--------------------------------------------------|
|--------------------------------------------------|
|--------------------------------------------------|


   S  S  S  S  S  S  S  S  S  S  S  S  S  S  S  S  
|--------------------------------------------------|
|--13-13-13-13-13-13-13-13-13-13-13-13-------------|
|--------------------------------------12-12-12-12-|
|--------------------------------------------------|
|--------------------------------------------------|
|--------------------------------------------------|


1:51
"We are the creators..."


   H         S  S  S  S  S  S  S  S  
|-----------------------------------|
|-----------------------------------|
|-----------14-14-14-14-14-14-14-14-|
|-----------------------------------|
|-----------------------------------|
|-----------------------------------|


   S  S  S  S  S  S  S  S  S  S  S  S  S  S  S  S  
|--------------------------------------------------|
|--------------------------------------------------|
|--14-14-14-14-14-14-14-14-14-14-14-14-14-14-14-14-|
|--------------------------------------------------|
|--------------------------------------------------|
|--------------------------------------------------|


   S  S  S  S  S  S  S  S  S  S  S  S  S  S  S  S  
|--------------------------------------------------|
|--17-17-17-17-17-17-17-17-17-17-17-17-17-17-17-17-|
|--------------------------------------------------|
|--------------------------------------------------|
|--------------------------------------------------|
|--------------------------------------------------|


    S  S  S  S  S  S  S  S  S  S  S  S  S  S  S  S  
|--------------------------------------------------|
|--12-12-12-12-12-12-12-12-12-12-12-12-12-12-12-12-|
|--------------------------------------------------|
|--------------------------------------------------|
|--------------------------------------------------|
|--------------------------------------------------|


   S  S  S  S  S  S  S  S  S  S  S  S  S  S  S  S  
|--------------------------------------------------|
|--------------------------------------------------|
|--14-14-14-14-14-14-14-14-14-14-14-14-14-14-14-14-|
|--------------------------------------------------|
|--------------------------------------------------|
|--------------------------------------------------|


    S  S  S  S  S  S  S  S  S  S  S  S  S  S  S  S  
|--------------------------------------------------|
|--------------------------------------------------|
|--14-14-14-14-14-14-14-14-14-14-14-14-14-14-14-14-|
|--------------------------------------------------|
|--------------------------------------------------|
|--------------------------------------------------|


    S  S  S  S  S  S  S  S  S  S  S  S  S  S  S  S  
|--------------------------------------------------|
|--------------------------------------------------|
|--17-17-17-17-17-17-17-17-17-17-17-17-17-17-17-17-|
|--------------------------------------------------|
|--------------------------------------------------|
|--------------------------------------------------|


   S  S  S  S  S  S  S  S  S  S  S  S  S  S  S  S  
|--------------------------------------------------|
|--------------------------------------------------|
|--16-16-16-16-16-16-16-16-16-16-16-16-16-16-16-16-|
|--------------------------------------------------|
|--------------------------------------------------|
|--------------------------------------------------|


Djenty part
2:02
"Lies..."


  |----3----|                                                                  
  Q    Q    Q    E  E  S S E     H        E  E  E  E      Q    E  E  H           E  E  E  E  E  Q      E  
|------------------------------|------------------------|----------------------|---------------------------|
|------------------------------|------------------------|----------------------|---------------------------|
|------------------------------|------------------------|----------------------|---------------------------|
|------------------------------|------------------------|-------1--------------|-----1---------------------|
|--1---------------------------|------------------------|----------------------|---------------------------|
|-------2----1----0-----0-0----|-----------0--3--3--2b--|--L-------------------|--------3--0--3--2pb-------|


   S S S S S S S S E  E  E  E     E  S S E  E  E  E  Q       
|------------------------------|---------------------------|
|------------------------------|---------------------------|
|------------------------------|---------------------------|
|--0-0-0-0---0-0-0-------------|---------------------------|
|--0-0-0-0---0-0-0-------------|---------------------------|
|--1-1-1-1---1-1-1-------------|-----0-0----0--1--0--2b----|


  E  S E  E  S E  E  E  E     E  E  E  E  E  E  E  E   
|---------------------------|--------------------------|
|---------------------------|--------------------------|
|---------------------------|--------------------------|
|-----0-0--0--0-0-----------|-----0--0--0--0--0--0--0--|
|-----0-0--0--0-0-----------|-----0--0--0--0--0--0--0--|
|--L--0-0--0--0-0-----------|-----0--0--0--0--0--0--0--|


  |----3----|                                                                  
  Q    Q    Q    E  E  S S E     H        E  E  E  E      Q    E  E  H           E  E.  E.  E  E  E  E      
|------------------------------|------------------------|----------------------|-------------------------|
|------------------------------|------------------------|----------------------|-------------------------|
|------------------------------|------------------------|----------------------|-------------------------|
|------------------------------|------------------------|-------1--------------|-------------------------|
|--1---------------------------|------------------------|----------------------|-----0---0---0-----------|
|-------2----1----0-----0-0----|-----------0--3--3--2b--|--L-------------------|-----1---1---1-----------|


                                                     |--3--|  |--3--|   
  E  E.  S. S. T T T T E  E  E     S S E  T T T T E  E  E  E  E  E  E   
--------------------------------|--------------------------------------|
--------------------------------|--------------------------------------|
--------------------------------|--------------------------------------|
--------------------------------|--------------------------------------|
-----0------0--0-0-0-0-------0--|------0--0-0-0-0----0--0--0--0--0--0--|
-----1---0--1--1-1-1-1-------1--|--L-0-1--1-1-1-1----0--0--0--0--0--0--|


  E  S E  S E  T T T T E  E  S S    S S E  T T T T E  H         
---------------------------------|-----------------------------|
---------------------------------|-----------------------------|
---------------------------------|-----------------------------|
---------------------------------|-----------------------------|
---------------------------------|-----------------------------|
-----0-0--0-0--0-0-0-0-------0-0-|--L-0-0--0-0-0-0-------------|


  E  E  H.              W                   E  E  S E.  H         
---------------------|-------------------|-----------------------|
---------------------|-------------------|-----------------------|
---------------------|-------------------|-----------------------|
--0--0--0------------|--L----------------|--0--0--0-0---L--------|
--0--0--0------------|--L----------------|--0--0--0-0---L--------|
--1--1--1------------|--L----------------|--1--1--1-1---L--------|


           \4                                                                   
  H        H           E  E  S S E  E  E  Q       T T T T E  E  E  E  E  E  E   
--------------------|--------------------------|-------------------------------|
--------------------|--------------------------|-------------------------------|
--------------------|--------------------------|-------------------------------|
--L-----------------|--0--0--0-0---------------|--0-0-0-0----------0-----------|
--L-----------------|--0--0--0-0---------------|--0-0-0-0----------0-----------|
--L--------0--------|--0--0--0-0-------0-------|--0-0-0-0----------0-----------|


  |--3--|  |-3-|                                          
  E  E  E  E   Q    Q    Q       E  E  E  E  E  E  E  E   
------------------------------|--------------------------|
--------------11--------------|--------------------------|
--------------14--------------|--------------------------|
--0--0--0--0------------------|--------------------------|
--0--0--0--0------------------|--------------------------|
--0--0--0--0------------------|--0-----------0-----------|



2:38
"Vultures above..."


   E   E   E   E   E   E   E   E      E   E   E   E   E   E   E   E   
|--15------15------15------15------|--13------13------13------13------|
|------15------15------15------15--|------15------15------15------15--|
|----------------------------------|----------------------------------|
|----------------------------------|----------------------------------|
|----------------------------------|----------------------------------|
|----------------------------------|----------------------------------|


   E   E   E   E   E   E   E   E      E   E   E   E   E   E   E   E   
|--12------12------12------12------|----------------------------------|
|------15------15------15------15--|------15------15------15------15--|
|----------------------------------|--14------14------14------14------|
|----------------------------------|----------------------------------|
|----------------------------------|----------------------------------|
|----------------------------------|----------------------------------|    x2


2:50
"Circling us from head..."

    W                    H         H           W                     H.            Q     
|--------------------|------------15--------|---------------------|----------------------|
|--------------------|--13------------------|--17b----------------|--13------------------|
|--14----------------|----------------------|---------------------|----------------12----|
|--------------------|----------------------|---------------------|----------------------|
|--------------------|----------------------|---------------------|----------------------|
|--------------------|----------------------|---------------------|----------------------|




    W                    H         H           W                     W              
|--------------------|------------15--------|---------------------|----------------------|
|--------------------|--13------------------|--17b----------------|--13------------------|
|--14----------------|----------------------|---------------------|----------------------|
|--------------------|----------------------|---------------------|----------------------|
|--------------------|----------------------|---------------------|----------------------|
|--------------------|----------------------|---------------------|----------------------|


3:02
Only Guitar 
    
       E   E   E   E   E   E   E   E    
|----------------------------------|
|----------------------------------|
|----------------------------------|    
|----------------------------------|
|----------12--17----------12--17--| 
|--12--15----------12--15----------|   


3:04
"They came to conquer..."


   E   E   E   E   E   E   E   E      E   E   E   E   E   E   E   E   
|----------------------------------|----------------------------------|
|----------------------------------|------------------15------15--17--|
|----------------------------------|--------------14------14----------|
|----------------------------------|--14------14----------------------|
|----------12--17----------12--17--|------17--------------------------|    x3
|--12--15----------12--15----------|----------------------------------|



   E   E   E   E   E   E   E   E      E   E   E   E   E   E   E   E  
|----------------------------------|-----------------------------------|
|----------------------------------|------------------18--17--13--17---|
|----------------------------------|--------------14-------------------|   
|----------------------------------|--14------14-----------------------|
|----------12--17----------12--17--|-------17--------------------------|
|--12--15----------12--15----------|-----------------------------------| 


   E   E   E   E   E   E   E   E      E   E   E   E   E   E   E   E   
|----------------------------------|----------------------------------|
|----------------------------------|------------------15------15--17--|
|----------------------------------|--------------14------14----------|
|----------------------------------|--14------14----------------------|
|----------12--17----------12--17--|-----17---------------------------|    x3
|--12--15----------12--15----------|----------------------------------|



   E   E   E   E   E   E   E   E      E   E   E   E   E   E   E   E  
|----------------------------------|-----------------------------------|
|----------------------------------|------------------18--17--13--17---|   w/ Delay
|----------------------------------|--------------14-------------------|   
|----------------------------------|--14------14-----------------------|
|----------12--17----------12--17--|------17---------------------------|
|--12--15----------12--15----------|-----------------------------------| 






Duration Legend
---------------
W - whole
H - half
Q - quarter
E - 8th
S - 16th
T - 32nd
X - 64th
. - note dotted
|-n-|  - n-tuplets


Tablature Legend
----------------
L - tied note
x - dead note
g - grace note
(n) - ghost note
> - accentuded note
NH - natural harmonic
AH - artificial harmonic
TH - tapped harmonic
SH - semi harmonic
PH - pitch harmonic
h - hammer on
p - pull off
b - bend
br - bendRelease
pb - preBend
pbr - preBendRelease
brb - bendReleaseBend
\n/ - tremolo bar dip
\n - tremolo bar dive
-/n - tremolo bar Release up
/n\ - tremolo bar inverted dip
/n - tremolo bar return
-\n - tremolo bar Release down
S - shift slide
s - legato slide
/ -  slide into from below or out of upwards
\ -  slide into from above or out of downwards
~ - vibrato
W - wide vibrato
tr - trill
TP - tremolo picking
T - tapping
S - slap
P - pop
< - fade in
^ - brush up
v - brush down
Добавлено: 10.12.2015
Вам также может быть интересно:
Другие материалы по этой песне:

Страница создана 10.12.2015
http://primanota.ru/oceans-ate-alaska/vultures-and-sharks-chords.htm
Привет, Гость.
Предлагаем пройти революционный курс по гитаре.
Подарок от PrimaNota.Ru, забирай!