PrimaNota.ru - самый крупный в мире бесплатный архив песенных текстов, аккордов, табулатур и нот


Oceans Ate Alaska - To Catch A Flame - таба, видео

Регистрация Запомнить меня
Войти через:  Facebook Google Twitter Vk Yandex Mail.ru

Oceans Ate Alaska - To Catch A Flame - таба, видео

Печатать
Просмотров: 462
Уроки эстрадного вокала в Санкт-Петербурге
INTRO                                         DropC#: C#  G#  C#  F#  A#  D#

To Catch A Flame
Oceans Ate Alaska

|-----------------------------------------|--------------10------10-|
|-13--------------------------------------|------13-----------------|
|----10----9-10-9-----9-9p10----9-10-9----|-9-10----9-10----9-10----|
|-------12--------10---------12--------10-|-------------------------|
|-----------------------------------------|-------------------------|
|-----------------------------------------|-------------------------|

|-12-13-12-------12-13-12------------------|
|----------13-------------13---------------|
|-------------14-------------14-14-12-12-12|
|------------------------------------------|
|------------------------------------------|
|------------------------------------------|

|--------------------------------10------10-|
|------------------------13-----------------|
|-9-10----9-10-9----9-10----9-10----9-10----|
|------12--------10-------------------------|
|-------------------------------------------|
|-------------------------------------------|

|----------------------------------------|
|-13-------------------------------------|
|----10----9-10-9----9-9p10----9-10-9----|
|-------12--------10--------12--------10-|
|----------------------------------------|
|----------------------------------------|

|--------------10------10-|-12-13-12-------12-13-12------------------|
|------13-----------------|----------13-------------13---------------|
|-9-10----9-10----9-10----|-------------14-------------14-14-12-12-12|
|-------------------------|------------------------------------------|
|-------------------------|------------------------------------------|
|-------------------------|------------------------------------------|

|--------------------------------10------10-|
|------------------------13-----------------|
|-9-10----9-10-9----9-10----9-10----9-10----|
|------12--------10-------------------------|
|-------------------------------------------|
|-------------------------------------------|

|-12-13-12-------12-13-12------------------|
|----------13-------------13---------------|
|-------------14-------------14-14-12-12-12|
|------------------------------------------|
|------------------------------------------|
|------------------------------------------|

|-12-13-12-------12-13-12------------------|
|----------13-------------13---------------|
|-------------14-------------14-14-12-12-12|
|------------------------------------------|
|------------------------------------------|
|------------------------------------------|

VERSE

|------------------------------------------------|
|------------------------------------------------|
|------------------------------------------------|
|------------------------------------------------|
|------------------------5--0-0-0--0--0--0--0--0-|
|--------------------3p7----1-1-1--1--1--1--1--1-|

|------------------------------------------------|
|------------------------------------------------|
|------------------------------------------------|
|------------------------------------------------|
|------------------------5--0-0-0--0--0--0--0--0-|
|-0--0-0--0--0--0--0-3p7----1-1-1--1--1--1--1--1-|

|------------------------------------------------|
|------------------------------------------------|
|------------------------------------------------|
|------------------------------------------------|
|------------------------5--0-0-0--0--0--0--0--0-|
|-0--0-0--0--0--0--0-3p7----1-1-1--1--1--1--1--1-|

|--------------------|--------------------|
|--------------------|--------------------|
|--------------------|--------------------|
|--------------------|--------------------|
|-0--0--0-0-0-0--0-0-|-0--0--0-0-0-0--0-0-|
|-1--1--1-1-1-1--1-1-|-1--1--1-1-1-1--1-1-|

|------------------------------------------------|
|------------------------------------------------|
|------------------------------------------------|
|------------------------------------------------|
|------------------------5--0-0-0--0--0--0--0--0-|
|-0--0-0--0--0--0--0-3p7----1-1-1--1--1--1--1--1-|

|------------------------------------------------|
|------------------------------------------------|
|------------------------------------------------|
|------------------------------------------------|
|------------------------5--0-0-0--0--0--0--0--0-|
|-0--0-0--0--0--0--0-3p7----1-1-1--1--1--1--1--1-|

|--------------------|--------------------|
|--------------------|--------------------|
|--------------------|--------------------|
|--------------------|--------------------|
|-0--0--0-0-0-0--0-0-|-0--0--0-0-0-0--0-0-|
|-1--1--1-1-1-1--1-1-|-1--1--1-1-1-1--1-1-|

|--------------------|
|--------------------|
|--------------------|
|--------------------|
|-0--0--0-0-0-0--0-0-|
|-1--1--1-1-1-1--1-1-|

CHORUS

|-----------------------------------------|--------------10------10-|
|-13--------------------------------------|------13-----------------|
|----10----9-10-9-----9-9p10----9-10-9----|-9-10----9-10----9-10----|
|-------12--------10---------12--------10-|-------------------------|
|-----------------------------------------|-------------------------|
|-----------------------------------------|-------------------------|

|-12-13-12-------12-13-12------------------|
|----------13-------------13---------------|
|-------------14-------------14-14-12-12-12|
|------------------------------------------|
|------------------------------------------|
|------------------------------------------|


|--------------------------------10------10-|
|------------------------13-----------------|
|-9-10----9-10-9----9-10----9-10----9-10----|
|------12--------10-------------------------|
|-------------------------------------------|
|-------------------------------------------|

|-12-13-12-------12-13-12------------------|
|----------13-------------13---------------|
|-------------14-------------14-14-12-12-12|
|------------------------------------------|
|------------------------------------------|
|------------------------------------------|

VERSE 2

|--------------------------------------------|
|--------------------------------------------|
|--------------------------------------------|
|--8--8--8--8---8--8--8--8--7-7-7-7--7-7-7-7-|
|-10-10-10-10--10-10-10-10--8-8-8-8--8-8-8-8-|
|--------------------------------------------|

|------------------------------------------------|
|------------------------------------------------|
|------------------------------------------------|
|------------------------------------------------|
|------------------------5--0-0-0--0--0--0--0--0-|
|-0--0-0--0--0--0--0-3p7----1-1-1--1--1--1--1--1-|

|------------------------------------------------|
|------------------------------------------------|
|------------------------------------------------|
|------------------------------------------------|
|------------------------5--0-0-0--0--0--0--0--0-|
|-0--0-0--0--0--0--0-3p7----1-1-1--1--1--1--1--1-|

|--------------------------------------------|
|--------------------------------------------|
|--------------------------------------------|
|--8--8--8--8---8--8--8--8--7-7-7-7--7-7-7-7-|
|-10-10-10-10--10-10-10-10--8-8-8-8--8-8-8-8-|
|--------------------------------------------|

|-------------------------------------------------------|
|------------------------4------------------------------|
|----------3---3---------7------------------------------|
|------------7---7--------------------------------------|
|-0-0--0-0---------0-0-0--------------------------------|
|-0-0--0-0---------0-0-0--------------------------------|

|-------------------------------------------------------|
|-------------------------------------------------------|
|-------------------------------------------------------|
|-------------------------------------------------------|
|-------------------------------------------------------|
|-0-0-0-0-0--0-0-0--0--0-0-0-0--0-0-0-0--0-0--0-0-0-0-0-|

|-------------------------------------------------------|
|-------------------------------------------------------|
|-------------------------------------------------------|
|-------------------------------------------------------|
|-------------------------------5-----------------------|
|-0-0-0--0--0-0-0-0--0--0-0-3p7---12\0--0-0-0-0-0--0-0--|

|------------------------------------------------|
|------------------------------------------------|
|------------------------------------------------|
|------------------------------------------------|
|------^-^--^-^------------------------^-^--^-^--|
|0--0--0-0--0-0--0-0-0-0-0--0-0--0--0--0-0--0-0--|

Tremolo Picking (I'm Not Really Sure If This Part Is Correct Or Not)

|------------------|
|-10-13-9--10-13-9-|
|------------------|
|------------------|
|------------------|
|------------------|

|------------------------------------|
|-10-------10-------10----13-------13|
|----12-------12-------------12------|
|-------12-------12----12-------12---|
|------------------------------------|
|------------------------------------|

|--------------------------------------------------------------------|
|-------13----10-------10-------10----13-------13-------13-----------|
|-12-------------12-------12-------------12-------12-----------------|
|----------------------------------------------------------12--------|
|--------------------------------------------------------------------|
|--------------------------------------------------------------------|

|-------------------------------------------------------|
|-10-------10-------10----13-------13-------13----10----|
|----12-------12-------------12-------12-------------12-|
|-------12-------12----12-------12-------12----12-------|
|-------------------------------------------------------|
|-------------------------------------------------------|

|-------------------------------------------------|
|---10-------10----13-------13-------13-----------|
|------12-------------12-------12-----------------|
|12-------12----12-------12-------12----12--------|
|-------------------------------------------------|
|-------------------------------------------------|

|--------------------------------------------|
|--------------------------------------------|
|--------------------------------------------|
|--------------------------------------------|
|------------------------5--0--0--0--0--0--0-|
|-0--0-0--0--0--0--0-3p7----1--1--1--1--1--1-|

CHORUS

|-----------------------------------------|
|-----------------------------------------|
|--------------------------9----9-10-9----|
|----------------------------12--------10-|
|-----------------------------------------|
|-----------------------------------------|

|--------------10------10-|
|------13-----------------|
|-9-10----9-10----9-10----|
|-------------------------|
|-------------------------|

|-12-13-12-------12-13-12------------------|
|----------13-------------13---------------|
|-------------14-------------14-14-12-12-12|
|------------------------------------------|
|------------------------------------------|
|------------------------------------------|

|--------------------------------10------10-|
|------------------------13-----------------|
|-9-10----9-10-9----9-10----9-10----9-10----|
|------12--------10-------------------------|
|-------------------------------------------|
|-------------------------------------------|

|-12-13-12-------12-13-12------------------|
|----------13-------------13---------------|
|-------------14-------------14-14-12-12-12|
|------------------------------------------|
|------------------------------------------|
|------------------------------------------|

OUTRO

|--------------------------------10------10-|
|------------------------13-----------------|
|-9-10----9-10-9----9-10----9-10----9-10----|
|------12--------10-------------------------|
|-------------------------------------------|
|-------------------------------------------|

|-12-13-12-------12-13-12------------------|
|----------13-------------13---------------|
|-------------14-------------14-14-12-12-12|
|------------------------------------------|
|------------------------------------------|
|------------------------------------------|

|--------------------------------10------10-|
|------------------------13-----------------|
|-9-10----9-10-9----9-10----9-10----9-10----|
|------12--------10-------------------------|
|-------------------------------------------|
|-------------------------------------------|

|-12-13-12-------12-13-12------------------|
|----------13-------------13---------------|
|-------------14-------------14-14-12-12-12|
|------------------------------------------|
|------------------------------------------|
|------------------------------------------|

|------------------|
|--11--10----------|
|----------9--10---|
|------------------|
|------------------|
|------------------|
Добавлено: 08.09.2013
Другие материалы по этой песне:

Страница создана 08.09.2013
http://primanota.ru/oceans-ate-alaska/to-catch-a-flame-chords.htm
Привет, Гость.
Предлагаем пройти революционный курс по гитаре.
Подарок от PrimaNota.Ru, забирай!