PrimaNota.ru - самый крупный в мире бесплатный архив песенных текстов, аккордов, табулатур и нот


Norma Jean - The Potter Has No Hands - текст песни, таба, видео

Регистрация Запомнить меня
Войти через:  Facebook Google Twitter Vk Yandex Mail.ru

Norma Jean - The Potter Has No Hands - текст песни, таба, видео

Печатать
Просмотров: 96
--------------------------------------------
   "The Potter Has No Hands" - Norma Jean
--------------------------------------------
Tabbed by: millarso (Jake Miller)
E-mail: millarso2.0@gmail.com

Tuning: Drop Db/C# (Drop D half step down)

Guitar 1: Left Channel
Guitar 2: Right Channel

SECTION 1
Both Guitars
Eb|-----------------------------------------------------------------|
Bb|-----------------------------------------------------------------|
Gb|-----------------------------------------------------------------|
Db|-6--2------------------6--2-2------------------------------------|x4
Ab|-6--2--<2><2><2><2><2>-6--2-2--<2><2><2><2><2><2><2><2><2><2>----|
Db|-6--2------------------6--2-2------------------------------------|

NOTE: To get the natural harmonics sounding right, experiment by placing
your finger at various places over the fret, until you find the right sound.

SECTION 2
Guitar 1
Eb|-----------------------------------------------------------|
Bb|-----0----------------0----------------------0-------------|
Gb|-----4----------------4----------------------4-------------|
Db|--3------6-3p0-----3------6-6-3p0---------3------6-3p0-----|
Ab|--3----0-6-----3p0-3----0-6-6-----3p0-----3----0-6-----3p0-|
Db|--3----0-6---------3----0-6-6---------3p0-3----0-6---------|
||        .                .                      .
Guitar 2
Eb|-----------------------------------------------------------|
Bb|-----0----------------0----------------------0-------------|
Gb|-----4----------------4----------------------4-------------|
Db|--3------6-3p0-----3------6-6-3p0---------3------6-3p0-----|
Ab|--3----0-6-----3p0-3----0-6-6-----3p0-3p0-3----0-6-----3p0-|
Db|--3----0-6---------3----0-6-6-------------3----0-6---------|
          .                .                      .

Guitar 1
Eb|----------------------------------------|
Bb|----0-----------------------------------|
Gb|----4-----------------------------------|
Db|-3------6-6-3p0-------------------------|
Ab|-3----0-6-6-----3p0---------5p0-----3p0-|
Db|-3----0-6-6---------3p0-3p0-----3p0-----|
||       .
Guitar 2
Eb|----------------------------------------|
Bb|----0-----------------------------------|
Gb|----4-----------------------------------|
Db|-3------6-6-3p0---------0h2-0h3-----3p0-|
Ab|-3----0-6-6-----3p0-3p0-----------------|
Db|-3----0-6-6---------------------3p0-----|
         .

REPEAT SECTION 1 (only repeat once)

TRANSITION
Eb|-----------------------------|
Bb|----0----------------0-------|
Gb|----4----------------4-------|
Db|-3------6-3p0-----3--------4-|
Ab|-3----0-6-----3p0-3----0-6-4-|
Db|-3----0-6---------3----0-6-4-|
         .                . .

SECTION 3
Guitar 1
Eb|------------------------------------------------|
Bb|------------------------------------------------|
Gb|------------------------------------------------|
Db|------------------------------------------------|x4
Ab|------------------------------------------------|
Db|-1212121212\--12-12-12-12\--12-12\--1212121212\-|
||
Guitar 2
Eb|------------------------------------------------|
Bb|------------------------------------------------|
Gb|------------------------------------------------|
Db|-1212121212\--12-12-12-12\--12-12\--1212121212\-|x4
Ab|------------------------------------------------|
Db|------------------------------------------------|
||
Extra Guitar (in background)
Eb|-------------------------------|
Bb|----------6---------2----------|
Gb|----------7---------3----------|
Db|----------7---------3----------|x2
Ab|----------5---------1----------|
Db|-0-----------------------------|

SECTION 4
Guitar 1
Eb|----------------------------------|
Bb|----------------------------------|
Gb|----------------------------------|
Db|--------------------11-11---------|x4
Ab|-------0-------------8--8-00000---|
Db|-0000--0-12\--0000---8--8-000004b-|
||        .                  .....
Guitar 2
Eb|----------------------------------|
Bb|----------------------------------|
Gb|----------------------------------|
Db|--------------------11-11---------|x4
Ab|-------0-------------8--8-00000---|
Db|-0000--0-12\--0000---8--8-000007b-|
          .                  .....

TRANSITION 2
Eb|----------------------------------------------|
Bb|----------------------------------------------|
Gb|----------------------------------------------|
Db|------------------------0--0--0--6--2---------|
Ab|----(guitar-noise)------0--0--0--6--2---------|
Db|------------------------0--0--0--6--2--5b6-2b-|
||                         .  .  .
Guitar 2
Eb|----------------------------------------------|
Bb|----------------------------------------------|
Gb|----------------------------------------------|
Db|-12~--------------------0--0--0--6--2---------|
Ab|-12~--(guitar-noise)----0--0--0--6--2---------|
Db|-12~--------------------0--0--0--6--2---------|
                           .  .  .
REPEAT SECTION 1

SECTION 5 (similar to SECTION 2)
Guitar 1
Eb|------------------------------------------|
Bb|-----0----------------0-------------------|
Gb|-----4----------------4-------------------|
Db|--3------6-3p0-----3------6-6-3p0---------|
Ab|--3----0-6-----3p0-3----0-6-6-----3p0-----|
Db|--3----0-6---------3----0-6-6---------3p0-|
||        .                .
Guitar 2
Eb|------------------------------------------|
Bb|-----0----------------0-------------------|
Gb|-----4----------------4-------------------|
Db|--3------6-3p0-----3------6-6-3p0---------|
Ab|--3----0-6-----3p0-3----0-6-6-----3p0-3p0-|
Db|--3----0-6---------3----0-6-6-------------|
          .                .
Guitar 1
Eb|---------------------------------------------------------|
Bb|-----0----------------0----------------------------------|
Gb|-----4----------------4----------------------------------|
Db|--3------6-3p0-----3------6-6-3p0------------------------|
Ab|--3----0-6-----3p0-3----0-6-6-----3p0---------5p0-----3p0|
Db|--3----0-6---------3----0-6-6---------3p0-3p0-----3p0----|
||        .                .
Guitar 2
Eb|------------------------------------------|
Bb|------------------------------------------|
Gb|------------------------------------------|
Db|--3------6---------3------6-6---2---9---6-|
Ab|--3------6---------3------6-6---2---9---6-|
Db|--3------6---------3------6-6---2---9---6-|

REPEAT SECTION 1 (one repeat)

TRANSITION 3
Guitar 1
Eb|-------------------------------|
Bb|----0----------------0---------|
Gb|----4----------------4---------|
Db|-3------6-3p0-----3------------|
Ab|-3----0-6-----3p0-3----0-0-----|
Db|-3----0-6---------3----0-0-3b6-|
||       .                . .
Guitar 2
Eb|-------------------------------|
Bb|----0----------------0---------|
Gb|----4----------------4---------|
Db|-3------6-3p0-----3------------|
Ab|-3----0-6-----3p0-3----0-0-----|
Db|-3----0-6---------3----0-0-----|
         .                . .

SECTION 6
Both Guitars
Eb|-------------------------------------------------------------------------|
Bb|-------------------------------------------------------------------------|
Gb|-7-7-7-7-7-7-7-7-7-7-7-7-7-7-7-7-10-10-10-10-10-10-10-10-6-6-6-6-6-6-6-6-|
Db|-x-x-x-x-x-x-x-x-x-x-x-x-x-x-x-x-11-11-11-11-11-11-11-11-7-7-7-7-7-7-7-7-|
Ab|-5-5-5-5-5-5-5-5-5-5-5-5-5-5-5-5--8--8--8--8--8--8--8--8-4-4-4-4-4-4-4-4-|
Db|-0-0-0-0-0-0-0-0-0-0-0-0-0-0-0-0--8--8--8--8--8--8--8--8-4-4-4-4-4-4-4-4-|

Guitar 1
Eb|---------------------------------------------------------------------------------|
Bb|---------------------------------------------------------------------------------|
Gb|-7-7-7-7-7-7-7-7-7-7-7-7-7-7-7-7-10-10-10-10-10-10-10-10-10-10-10-10-10-10-10-10-|
Db|-x-x-x-x-x-x-x-x-x-x-x-x-x-x-x-x--x--x--x--x--x--x--x--x--x--x--x--x--x--x--x--x-|
Ab|-5-5-5-5-5-5-5-5-5-5-5-5-5-5-5-5--8--8--8--8--8--8--8--8--8--8--8--8--8--8--8--8-|
Db|-0-0-0-0-0-0-0-0-0-0-0-0-0-0-0-0-------------------------------------------------|
||
Guitar 2
Eb|-------------------------------------------------------------------------|
Bb|-------------------------------------------------------------------------|
Gb|-7-7-7-7-7-7-7-7-7-7-7-7-7-7-7-7-10-10-10-10-10-10-10-10-6-6-6-6-6-6-6-6-|
Db|-x-x-x-x-x-x-x-x-x-x-x-x-x-x-x-x-11-11-11-11-11-11-11-11-7-7-7-7-7-7-7-7-|
Ab|-5-5-5-5-5-5-5-5-5-5-5-5-5-5-5-5--8--8--8--8--8--8--8--8-4-4-4-4-4-4-4-4-|
Db|-0-0-0-0-0-0-0-0-0-0-0-0-0-0-0-0--8--8--8--8--8--8--8--8-4-4-4-4-4-4-4-4-|

REPEAT SECTION 4

SECTION 7
Eb|-------------------------------|
Bb|-------------------------------|
Gb|-77777---7-7-7-7---7-7---77777-|
Db|-xxxxx---x-x-x-x---x-x---xxxxx-|x2
Ab|-55555---5-5-5-5---5-5---55555-|
Db|-------------------------------|
||
Eb|-----------------------------------|
Bb|-----------------------------------|
Gb|-77777\---7-7-7-7\---7-7\---77777\-|
Db|-xxxxx----x-x-x-x----x-x----xxxxx--|x2
Ab|-55555\---5-5-5-5\---5-5\---55555\-|
Db|-----------------------------------|

Guitar 1
Eb|-----------------------------------|
Bb|-----------------------------------|
Gb|-77777\---7-7-7-7\---7-7\---77777\-|
Db|-xxxxx----x-x-x-x----x-x----xxxxx--|x2
Ab|-55555\---5-5-5-5\---5-5\---55555\-|
Db|-----------------------------------|
||
Guitar 2
Eb|------------------------------------------------|
Bb|------------------------------------------------|
Gb|-1010101010\--10-10-10-10\--10-10\--1010101010\-|
Db|--x-x-x-x-x----x--x--x--x----x--x----x-x-x-x-x--|x2
Ab|--8-8-8-8-8\---8--8--8--8\---8--8\---8-8-8-8-8\-|
Db|------------------------------------------------|

Guitar 1
Eb|------------------------------------------------|
Bb|------------------------------------------------|
Gb|-1414141414\--14-14-14-14\--14-14\--1414141414\-|
Db|--x-x-x-x-x----x--x--x--x----x--x----x-x-x-x-x--|
Ab|-1212121212\--12-12-12-12\--12-12\--1212121212\-|
Db|------------------------------------------------|
||
Guitar 2
Eb|------------------------------------------------|
Bb|------------------------------------------------|
Gb|-1010101010\--10-10-10-10\--10-10\--1010101010\-|
Db|--x-x-x-x-x----x--x--x--x----x--x----x-x-x-x-x--|
Ab|--8-8-8-8-8\---8--8--8--8\---8--8\---8-8-8-8-8\-|
Db|------------------------------------------------|

Guitar 1
Eb|------------------------------------------------|
Bb|------------------------------------------------|
Gb|-1414141414\--14-14-14-14\--14-14\--1414141414\-|
Db|--x-x-x-x-x----x--x--x--x----x--x----x-x-x-x-x--|
Ab|-1212121212\--12-12-12-12\--12-12\--1212121212\-|
Db|------------------------------------------------|
||
Guitar 2
Eb|------------------------------------------------|
Bb|------------------------------------------------|
Gb|-1919191919\--19-19-19-19\--19-19\--1919191919\-|
Db|--x-x-x-x-x----x--x--x--x----x--x----x-x-x-x-x--|
Ab|-1717171717\--17-17-17-17\--17-17\--1717171717\-|
Db|------------------------------------------------|

Both Guitars
Eb|-------------------------------|
Bb|-------------------------------|
Gb|-------------------------------|
Db|-------------------------------|
Ab|-------------------------------|
Db|-00000---0-0-0-0---0-0---00000-|

Guitar 1
Eb|-------------------------------------------------------------------------------------------|
Bb|------18------------18--------18---------13b--------18------------18--------18---------13b-|
Gb|-------x-------------x---------x----------x----------x-------------x---------x----------x--|
Db|------14b15---------14b15-----14b15------11b--------14b15---------14b15-----14b15------11b-|
Ab|-00000------0-0-0-0-------0-0-------00000------00000------0-0-0-0-------0-0-------00000----|
Db|-00000------0-0-0-0-------0-0-------00000------00000------0-0-0-0-------0-0-------00000----|
||  .....      . . . .       . .       .....      .....      . . . .       . .       .....
||
Guitar 2
Eb|-----------------------------------------------------------------------------|
Bb|------18b---------18b-----18b------15b------18b---------18b-----15b------18b-|
Gb|-------x-----------x-------x--------x--------x-----------x-------x--------x--|
Db|------15b---------15b-----15b------12b------15b---------15b-----12b------15b-|
Ab|-00000----0-0-0-0-----0-0-----00000----00000----0-0-0-0-----0-0-----00000----|
Db|-00000----0-0-0-0-----0-0-----00000----00000----0-0-0-0-----0-0-----00000----|
    .....    . . . .     . .     .....    .....    . . . .     . .     .....

Guitar 1
Eb|-------------------------------------------------------------------------------------------|
Bb|------18------------18--------18---------13b--------18------------18--------18---------13b-|
Gb|-------x-------------x---------x----------x----------x-------------x---------x----------x--|
Db|------14b15---------14b15-----14b15------11b--------14b15---------14b15-----14b15------11b-|
Ab|-00000------0-0-0-0-------0-0-------00000------00000------0-0-0-0-------0-0-------00000----|
Db|-00000------0-0-0-0-------0-0-------00000------00000------0-0-0-0-------0-0-------00000----|
||  .....      . . . .       . .       .....      .....      . . . .       . .       .....
||
Guitar 2
Eb|-----------------------------------------------------------------------------|
Bb|------18b---------15b-----18b------18b------15b---------18b-----18b------18b-|
Gb|-------x-----------x-------x--------x--------x-----------x-------x--------x--|
Db|------15b---------12b-----15b------15b------12b---------15b-----15b------15b-|
Ab|-00000----0-0-0-0-----0-0-----00000----00000----0-0-0-0-----0-0-----00000----|
Db|-00000----0-0-0-0-----0-0-----00000----00000----0-0-0-0-----0-0-----00000----|
    .....    . . . .     . .     .....    .....    . . . .     . .     .....

OUTRO
Eb|------------------------------|
Bb|------------------------------|
Gb|------------------------------|
Db|-6--2------------------6--2-2-|
Ab|-6--2--<2><2><2><2><2>-6--2-2-|
Db|-6--2------------------6--2-2-|

Pretty fun song. The only parts I'm unsure of are some of the pulloffs
in Section 5 and Section 2 and the Guitar 1 part at the end of Section 7
because the dissonances are so strange. If you don't like what I came up
with, feel free to let me know. Otherwise, a pretty fun song.
Please rate & comment.
Thanks,
millarso

************************************

| /   slide up
| \   slide down
| h   hammer-on
| p   pull-off
| ~   vibrato
| <>  harmonic
| x   Mute note
| b   Bend
| pb  Pre-bend
| br  Bend release
| pbr Pre-bend release
| brb Bend release bend

************************************
Добавлено: 28.09.2013
Другие материалы по этой песне:
  • Аккорды и текст

Страница создана 28.09.2013
http://primanota.ru/norma-jean/the-potter-has-no-hands-chords.htm
Привет, Гость.
Предлагаем пройти революционный курс по гитаре.
Подарок от PrimaNota.Ru, забирай!