PrimaNota.ru - самый крупный в мире бесплатный архив песенных текстов, аккордов, табулатур и нот


Norma Jean - Organized Beyond Recognition - текст песни, таба, видео

Регистрация Запомнить меня
Войти через:  Facebook Google Twitter Vk Yandex Mail.ru

Norma Jean - Organized Beyond Recognition - текст песни, таба, видео

Печатать
Просмотров: 56
As recorded by Norma Jean
            (From the 2002 Album BLESS THE MARTYR AND KISS THE CHILD)

Words and Music by Norma Jean
Arranged by Norma Jean
Transcribed by Jonathan Rose

Gtr I (Db Ab Db Gb Bb Eb) - 'Dist. Left'
Gtr II (Db Ab Db Gb Bb Eb) - 'Dist. Right'
Gtr III (Db Ab Db Gb Bb Eb) - 'Dist. Center'
Gtr IV (Db Ab Db Gb Bb Eb) - 'Choir'

 Intro
  Tension Rising QH=H2
    EmaE+                        EmaE+
 4/4
  Gtr I
  E q  H    +E    +W           E q  H    +E    +W
|---------------|------------|---------------|--------|
|---------------|------------|---------------|--------|
|---8--5----(5)-|-(5)--------|---8--5----(5)-|-(5)----|
|---6--6----(6)-|-(6)--------|---6--6----(6)-|-(6)----|
|---7--7----(7)-|-(7)--------|---7--7----(7)-|-(7)----|
|---------------|------------|---------------|--------|


  Q=125           H=H
    EmaE+ (Cmaj7b13/E)               EmaE+ (Cmaj7b13/E)
  E q  Q  E E E   E E E Q  E E E   E q  Q  E E E   E E E Q  E E E
|---------------|----------------|---------------|-----------------|
|---------------|-0--------0-----|---------------|-0--------0------|
|---8--5----5---|---5---5----5---|---8--5----5---|---5---5----5----|
|---6--6--6---6-|-----6--------6-|---6--6--6---6-|-----6--------6--|
|---7--7--------|----------------|---7--7--------|-----------------|
|---------------|----------------|---------------|-----------------|


  Q=129           H=H
    EmaE+ (Cmaj7b13/E)               EmaE+  (Cmaj7b13/E)
  Gtr I
  E q  Q  E E E   E E E Q  E E E   E q  Q   E E E   E E E Q   E E E
|---------------|----------------|----------------|------------------||
|---------------|-0--------0-----|----------------|-0---------0------||
|---8--5----5---|---5---5----5---|---8--5-----5---|---5---5-----5----||
|---6--6--6---6-|-----6--------6-|---6--6---6---6-|-----6---------6--||
|---7--7--------|----------------|---7--7---------|------------------||
|---------------|----------------|----------------|------------------||
|
| Gtr II
|                                         <
|                                         PM----------------------|
| W               W                H      E E E E   E E E E E E E E
|---------------|----------------|----------------|------------------||
|---------------|----------------|----------------|------------------||
|---------------|----------------|--------8-8-8-8-|-8-8-8-8-8-8-8-8--||
|---------------|----------------|----------------|------------------||
|---------------|----------------|----------------|------------------||
|---------------|----------------|----------------|------------------||


 "White tie, black jacket.."
  Getting Faster Q=1H=H
    EmajE+  (Cmaj7b13/E)                EmajE+  (Cmaj7b13/E)
  E q   Q   E E E   E E E Q   E E E   E q   Q   E E E   E E E Q   E E E
|-----------------|-----------------|-----------------|------------------|
|-----------------|-0---------0-----|-----------------|-0---------0------|
|---8---5-----5---|---5---5-----5---|---8---5-----5---|---5---5-----5----|
|---6---6---6---6-|-----6---------6-|---6---6---6---6-|-----6---------6--|
|---7---7---------|-----------------|---7---7---------|------------------|
|-----------------|-----------------|-----------------|------------------|
|
| PM------------------------------------------------------------------|
| E E E E E E E E   E E E E E E E E   E E E E E E E E   E E E E E E E E
|-----------------|-----------------|-----------------|------------------|
|-----------------|-----------------|-----------------|------------------|
|-5-8-8-5-5-5-5-5-|-5-5-5-5-5-5-5-5-|-5-8-8-5-5-5-5-5-|-5-5-5-5-5-5-5-5--|
|-----------------|-----------------|-----------------|------------------|
|-----------------|-----------------|-----------------|------------------|
|-----------------|-----------------|-----------------|------------------|


  Q=134             H=H
    EmajE+  (Cmaj7b13/E)                EmajE+  (Cmaj7b13/E)
  E q   Q   E E E   E E E Q   E E E   E q   Q   E E E   E E E Q   E E E
|-----------------|-----------------|-----------------|------------------|
|-----------------|-0---------0-----|-----------------|-0---------0------|
|---8---5-----5---|---5---5-----5---|---8---5-----5---|---5---5-----5----|
|---6---6---6---6-|-----6---------6-|---6---6---6---6-|-----6---------6--|
|---7---7---------|-----------------|---7---7---------|------------------|
|-----------------|-----------------|-----------------|------------------|
|
| PM------------------------------------------------------------------|
| E E E E E E E E   E E E E E E E E   E E E E E E E E   E E E E E E E E
|-----------------|-----------------|-----------------|------------------|
|-----------------|-----------------|-----------------|------------------|
|-5-8-8-5-5-5-5-5-|-5-5-5-5-5-5-5-5-|-5-8-8-5-5-5-5-5-|-5-5-5-5-5-5-5-5--|
|-----------------|-----------------|-----------------|------------------|
|-----------------|-----------------|-----------------|------------------|
|-----------------|-----------------|-----------------|------------------|


  Q=136             H=H
    EmajE+  (Cmaj7b13/E)                EmajE+  (Cmaj7b13/E)
  E q   Q   E E E   E E E Q   E E E   E q   Q   E E E   E E E Q   E E E
|-----------------|-----------------|-----------------|------------------|
|-----------------|-0---------0-----|-----------------|-0---------0------|
|---8---5-----5---|---5---5-----5---|---8---5-----5---|---5---5-----5----|
|---6---6---6---6-|-----6---------6-|---6---6---6---6-|-----6---------6--|
|---7---7---------|-----------------|---7---7---------|------------------|
|-----------------|-----------------|-----------------|------------------|
|
| PM------------------------------------------------------------------|
| E E E E E E E E   E E E E E E E E   E E E E E E E E   E E E E E E E E
|-----------------|-----------------|-----------------|------------------|
|-----------------|-----------------|-----------------|------------------|
|-5-8-8-5-5-5-5-5-|-5-5-5-5-5-5-5-5-|-5-8-8-5-5-5-5-5-|-5-5-5-5-5-5-5-5--|
|-----------------|-----------------|-----------------|------------------|
|-----------------|-----------------|-----------------|------------------|
|-----------------|-----------------|-----------------|------------------|


  Q=138             H=H
    EmajE+  (Cmaj7b13/E)                EmajE+  (Cmaj7b13/E)
  E q   Q   E E E   E E E Q   E E E   E q   Q   E E E   E E E Q   E E E
|-----------------|-----------------|-----------------|------------------|
|-----------------|-0---------0-----|-----------------|-0---------0------|
|---8---5-----5---|---5---5-----5---|---8---5-----5---|---5---5-----5----|
|---6---6---6---6-|-----6---------6-|---6---6---6---6-|-----6---------6--|
|---7---7---------|-----------------|---7---7---------|------------------|
|-----------------|-----------------|-----------------|------------------|
|
| PM------------------------------------------------------------------|
| E E E E E E E E   E E E E E E E E   E E E E E E E E   E E E E E E E E
|-----------------|-----------------|-----------------|------------------|
|-----------------|-----------------|-----------------|------------------|
|-5-8-8-5-5-5-5-5-|-5-5-5-5-5-5-5-5-|-5-8-8-5-5-5-5-5-|-5-5-5-5-5-5-5-5--|
|-----------------|-----------------|-----------------|------------------|
|-----------------|-----------------|-----------------|------------------|
|-----------------|-----------------|-----------------|------------------|


  Q=140             H=H
    EmajE+  (Cmaj7b13/E)                EmajE+  (Cmaj7b13/E)
  E q   Q   E E E   E E E Q   E E E   E q   Q   E E E   E E E Q   E E E
|-----------------|-----------------|-----------------|------------------|
|-----------------|-0---------0-----|-----------------|-0---------0------|
|---8---5-----5---|---5---5-----5---|---8---5-----5---|---5---5-----5----|
|---6---6---6---6-|-----6---------6-|---6---6---6---6-|-----6---------6--|
|---7---7---------|-----------------|---7---7---------|------------------|
|-----------------|-----------------|-----------------|------------------|
|
| PM------------------------------------------------------------------|
| E E E E E E E E   E E E E E E E E   E E E E E E E E   E E E E E E E E
|-----------------|-----------------|-----------------|------------------|
|-----------------|-----------------|-----------------|------------------|
|-5-8-8-5-5-5-5-5-|-5-5-5-5-5-5-5-5-|-5-8-8-5-5-5-5-5-|-5-5-5-5-5-5-5-5--|
|-----------------|-----------------|-----------------|------------------|
|-----------------|-----------------|-----------------|------------------|
|-----------------|-----------------|-----------------|------------------|


  Q=142             H=H
    EmajE+  (Cmaj7b13/E)
  E q   Q   E E E   E E E Q   E E E
|-----------------|-----------------|
|-----------------|-0---------0-----|
|---8---5-----5---|---5---5-----5---|
|---6---6---6---6-|-----6---------6-|
|---7---7---------|-----------------|
|-----------------|-----------------|
|
| PM---------------------------------
| E E E E E E E E   E E E E E E E E
|-----------------|-----------------|
|-----------------|-----------------|
|-5-8-8-5-5-5-5-5-|-5-5-5-5-5-5-5-5-|
|-----------------|-----------------|
|-----------------|-----------------|
|-----------------|-----------------|


    EmajE+  (Cmaj7b13/E)
                                     2/4
                    <
  E q   Q   E E E   E E E Q   E E E   E E E E
|-----------------|-----------------|----------||
|-----------------|-0---------0-----|---0------||
|---8---5-----5---|---5---5-----5---|-5---5----||
|---6---6---6---6-|-----6---------6-|-------6--||
|---7---7---------|-----------------|----------||
|-----------------|-----------------|----------||
|
|                   <
|---------------|                     PM--|
| E E E E E E E E   E E E E E E E E   E E E E
|-----------------|-----------------|----------||
|-----------------|-----------------|----------||
|-5-8-8-5-5-5-5-5-|-5-5-5-5-5-5-5-5-|-5-8-8-8--||
|-----------------|-----------------|-x-x-x-x--||
|-----------------|-----------------|-3-6-6-6--||
|-----------------|-----------------|----------||


   "Let's just face the fact.."
    Even Faster Q=155
    Bbsus2
   2/2
     E  E  E  E  E  E  E  E    E  E  E  E  E  E Q
||--------------------------|----------------------|
||o-------------------------|----------------------|
||--------------------------|----------------------|
||---8--8--8--8--8--8--8--8-|--8--8--8--8--8--8----|
||o--8--8--8--8--8--8--8--8-|--8--8--8--8--8--8----|
||---8--8--8--8--8--8--8--8-|--8--8--8--8--8--8----|
|
|    E  E  E  E  E  E  E  E    E  E  E  E  E  E Q
||--------------------------|----------------------|
||o-------------------------|----------------------|
||--------------------------|----------------------|
||--10-10-10-10-10-10-10-10-|-10-10-10-10-10-10----|
||o--8--8--8--8--8--8--8--8-|--8--8--8--8--8--8----|
||---8--8--8--8--8--8--8--8-|--8--8--8--8--8--8----|


  A5
  E E E E E E E E   E E E E E E Q    4x
|-----------------|------------------||
|-----------------|-----------------o||
|-----------------|------------------||
|-7-7-7-7-7-7-7-7-|-7-7-7-7-7-7------||
|-7-7-7-7-7-7-7-7-|-7-7-7-7-7-7-----o||
|-7-7-7-7-7-7-7-7-|-7-7-7-7-7-7------||
|
| E E E E E E E E   E E E E E E Q    4x
|-----------------|------------------||
|-----------------|-----------------o||
|-----------------|------------------||
|-7-7-7-7-7-7-7-7-|-7-7-7-7-7-7------||
|-7-7-7-7-7-7-7-7-|-7-7-7-7-7-7-----o||
|-7-7-7-7-7-7-7-7-|-7-7-7-7-7-7------||


 Interlude
  A5
 3/4
  PM-----------------------------------------------------------|
  E  E E E E E    E  E E E E E    E  E E E E E    E  E E E  E  E
|--------------|---------------|---------------|-----------------|
|--------------|---------------|---------------|-----------------|
|--------------|--7--9-9-------|---------------|--7--9-9---------|
|-5--7-7-------|---------------|--5--7-7-------|-----------------|
|--------5-7-7-|---------5-7-7-|---------5-7-7-|---------5--7--7-|
|--------------|---------------|---------------|-----------------|
|
| H.             +H.             +H.             +H        +E  E
|--------------|---------------|---------------|-----------------|
|--------------|---------------|---------------|-----------------|
|--------------|---------------|---------------|-----------------|
|-7------------|-(7)-----------|-(7)-----------|-(7)-------(7)---|
|-7------------|-(7)-----------|-(7)-----------|-(7)-------(7)-7-|
|-7------------|-(7)-----------|-(7)-----------|-(7)-------(7)-7-|


  A5
  E E E E E E    E  E E E E E    E  E E E E E    E  E E E E E
|-------------|---------------|---------------|---------------|
|-------------|---------------|---------------|---------------|
|-------------|--7h=9-x-------|---------------|--7h=9-x-------|
|-5h7-x-------|---------------|--5h=7-x-------|---------------|
|-------5h7-x-|---------5h7-x-|---------5h7-x-|---------5h7-x-|
|-------------|---------------|---------------|---------------|
|
| H.            +H.             +H.             +H.
|-------------|---------------|---------------|---------------|
|-------------|---------------|---------------|---------------|
|-------------|---------------|---------------|---------------|
|-7-----------|-(7)-----------|-(7)-----------|-(7)-----------|
|-7-----------|-(7)-----------|-(7)-----------|-(7)-----------|
|-7-----------|-(7)-----------|-(7)-----------|-(7)-----------|


  Gaining Speed Q=165       H=H
  N.C.
  Gtr I
   E   E   E   E   E   E     E   E   E   E   E   E
|-------------------------|-------------------------|
|-------------------------|-------------------------|
|-------------------------|--7h==9---x--------------|
|--5h==7---x--------------|-------------------------|
|--------------5h==7---x--|--------------5h==7---x--|
|-------------------------|-------------------------|
|
| Gtr II
|  PM------------------------------------------------
|  E   E   E   E   E   E     E   E   E   E   E   E
|-------------------------|-------------------------|
|-------------------------|-------------------------|
|-------------------------|-------------------------|
|-------------------------|-------------------------|
|-<5>-<5>-<5>-<5>-<5>-<5>-|-<5>-<5>-<5>-<5>-<5>-<5>-|
|-------------------------|-------------------------|
|
| Gtr III
|  E   E   E   E   E   E     E   E   E   E   E   E
|--x---x---x---x---x---x--|--x---x---x---x---x---x--|
|--x---x---x---x---x---x--|--x---x---x---x---x---x--|
|--x---x---x---x---x---x--|--x---x---x---x---x---x--|
|--x---x---x---x---x---x--|--x---x---x---x---x---x--|
|--x---x---x---x---x---x--|--x---x---x---x---x---x--|
|--x---x---x---x---x---x--|--x---x---x---x---x---x--|


   E   E   E   E   E   E     E   E   E   E   E   E
|-------------------------|-------------------------|
|-------------------------|-------------------------|
|-------------------------|--7h==9---x--------------|
|--5h==7---x--------------|-------------------------|
|--------------5h==7---x--|--------------5h==7---x--|
|-------------------------|-------------------------|
|
|-----------------------------------------------|
|  E   E   E   E   E   E     E   E   E   E   E   E
|-------------------------|-------------------------|
|-------------------------|-------------------------|
|-------------------------|-------------------------|
|-------------------------|-------------------------|
|-<5>-<5>-<5>-<5>-<5>-<5>-|-<5>-<5>-<5>-<5>-<5>-<5>-|
|-------------------------|-------------------------|
|
|  E   E   E   E   E   E     E   E   E   E   E   E
|--x---x---x---x---x---x--|--x---x---x---x---x---x--|
|--x---x---x---x---x---x--|--x---x---x---x---x---x--|
|--x---x---x---x---x---x--|--x---x---x---x---x---x--|
|--x---x---x---x---x---x--|--x---x---x---x---x---x--|
|--x---x---x---x---x---x--|--x---x---x---x---x---x--|
|--x---x---x---x---x---x--|--x---x---x---x---x---x--|


  Q=166                     H=H
  N.C.
   E   E   E   E   E   E     E   E   E   E   E   E
|-------------------------|-------------------------|
|-------------------------|-------------------------|
|-------------------------|--7h==9---x--------------|
|--5h==7---x--------------|-------------------------|
|--------------5h==7---x--|--------------5h==7---x--|
|-------------------------|-------------------------|
|
|  E   E   E   E   E   E     E   E   E   E   E   E
|-------------------------|-------------------------|
|-------------------------|-------------------------|
|-------------------------|-------------<5>-<5>-<5>-|
|-------------------------|---------<5>-<5>-<5>-<5>-|
|-<5>-<5>-<5>-<5>-<5>-<5>-|-<5>-<5>-----------------|
|-------------------------|-------------------------|
|
|  E   E   E   E   E   E     E   E   E   E   E   E
|--x---x---x---x---x---x--|--x---x---x---x---x---x--|
|--x---x---x---x---x---x--|--x---x---x---x---x---x--|
|--x---x---x---x---x---x--|--x---x---x---x---x---x--|
|--x---x---x---x---x---x--|--x---x---x---x---x---x--|
|--x---x---x---x---x---x--|--x---x---x---x---x---x--|
|--x---x---x---x---x---x--|--x---x---x---x---x---x--|


   E   E   E   E   E   E     E   E   E   E   E   E
|-------------------------|-------------------------|
|-------------------------|-------------------------|
|-------------------------|--7h==9---x--------------|
|--5h==7---x--------------|-------------------------|
|--------------5h==7---x--|--------------5h==7---x--|
|-------------------------|-------------------------|
|
|  E   E   E   E   E   E     E   E   E   E   E   E
|-------------------------|-------------------------|
|-------------------------|-------------------------|
|-<5>-----<5>-<5>---------|-------------------------|
|-<5>-<5>-<5>-<5>---------|-------------------------|
|-----------------<5>-<5>-|-<5>-<5>-<5>-<5>-<5>-<5>-|
|-------------------------|-------------------------|
|
|  E   E   E   E   E   E     E   E   E   E   E   E
|--x---x---x---x---x---x--|--x---x---x---x---x---x--|
|--x---x---x---x---x---x--|--x---x---x---x---x---x--|
|--x---x---x---x---x---x--|--x---x---x---x---x---x--|
|--x---x---x---x---x---x--|--x---x---x---x---x---x--|
|--x---x---x---x---x---x--|--x---x---x---x---x---x--|
|--x---x---x---x---x---x--|--x---x---x---x---x---x--|


  Q=167                     H=H
  N.C.
   E   E   E   E   E   E     E   E   E   E   E   E
|-------------------------|-------------------------|
|-------------------------|-------------------------|
|-------------------------|--7h==9---x--------------|
|--5h==7---x--------------|-------------------------|
|--------------5h==7---x--|--------------5h==7---x--|
|-------------------------|-------------------------|
|
|  PM------------------------------------------------
|  E   E   E   E   E   E     E   E   E   E   E   E
|-------------------------|-------------------------|
|-------------------------|-------------------------|
|-------------------------|-------------------------|
|-------------------------|-------------------------|
|-<5>-<5>-<5>-<5>-<5>-<5>-|-<5>-<5>-<5>-<5>-<5>-<5>-|
|-------------------------|-------------------------|
|
|  E   E   E   E   E   E     E   E   E   E   E   E
|--x---x---x---x---x---x--|--x---x---x---x---x---x--|
|--x---x---x---x---x---x--|--x---x---x---x---x---x--|
|--x---x---x---x---x---x--|--x---x---x---x---x---x--|
|--x---x---x---x---x---x--|--x---x---x---x---x---x--|
|--x---x---x---x---x---x--|--x---x---x---x---x---x--|
|--x---x---x---x---x---x--|--x---x---x---x---x---x--|


   E   E   E   E   E   E     E   E   E   E   E   E
|-------------------------|-------------------------|
|-------------------------|-------------------------|
|-------------------------|--7h==9---x--------------|
|--5h==7---x--------------|-------------------------|
|--------------5h==7---x--|--------------5h==7---x--|
|-------------------------|-------------------------|
|
|-----------------------------------------------|
|  E   E   E   E   E   E     E   E   E   E   E   E
|-------------------------|-------------------------|
|-------------------------|-------------------------|
|-<5>-----<5>-----<5>-----|-<5>-----<5>-----<5>-----|
|-<5>-<5>-<5>-<5>-<5>-<5>-|-<5>-<5>-<5>-<5>-<5>-<5>-|
|-----<5>-----<5>-----<5>-|-----<5>-----<5>-----<5>-|
|-------------------------|-------------------------|
|
|  E   E   E   E   E   E     E   E   E   E   E   E
|--x---x---x---x---x---x--|--x---x---x---x---x---x--|
|--x---x---x---x---x---x--|--x---x---x---x---x---x--|
|--x---x---x---x---x---x--|--x---x---x---x---x---x--|
|--x---x---x---x---x---x--|--x---x---x---x---x---x--|
|--x---x---x---x---x---x--|--x---x---x---x---x---x--|
|--x---x---x---x---x---x--|--x---x---x---x---x---x--|


  Q=168                     H=H
  N.C.
   E   E   E   E   E   E     E   E   E   E   E   E
|-------------------------|-------------------------|
|-------------------------|-------------------------|
|-------------------------|--7h==9---x--------------|
|--5h==7---x--------------|-------------------------|
|--------------5h==7---x--|--------------5h==7---x--|
|-------------------------|-------------------------|
|
|  PM------------------------------------------------
|  E   E   E   E   E   E     E   E   E   E   E   E
|-------------------------|-------------------------|
|-------------------------|-------------------------|
|-<5>-<5>-<5>-<5>-<5>-<5>-|-------------------------|
|-<5>-<5>-<5>-<5>-<5>-<5>-|-<5>-<5>-<5>-<5>-<5>-<5>-|
|-------------------------|-<5>-<5>-<5>-<5>-<5>-<5>-|
|-------------------------|-------------------------|
|
|  E   E   E   E   E   E     E   E   E   E   E   E
|--x---x---x---x---x---x--|--x---x---x---x---x---x--|
|--x---x---x---x---x---x--|--x---x---x---x---x---x--|
|--x---x---x---x---x---x--|--x---x---x---x---x---x--|
|--x---x---x---x---x---x--|--x---x---x---x---x---x--|
|--x---x---x---x---x---x--|--x---x---x---x---x---x--|
|--x---x---x---x---x---x--|--x---x---x---x---x---x--|


   E   E   E   E   E   E     E   E   E   E   E   E
|-------------------------|-------------------------|
|-------------------------|-------------------------|
|-------------------------|--7h==9---x--------------|
|--5h==7---x--------------|-------------------------|
|--------------5h==7---x--|--------------5h==7---x--|
|-------------------------|-------------------------|
|
|-----------------------------------------------|
|  E   E   E   E   E   E     E   E   E   E   E   E
|-------------------------|-------------------------|
|-------------------------|-------------------------|
|-<5>-<5>-----------------|-------------------------|
|-<5>-<5>-<5>-<5>---------|-------------------------|
|-----------------<5>-<5>-|-<5>-<5>-<5>-<5>-<5>-<5>-|
|-------------------------|-------------------------|
|
|  E   E   E   E   E   E     E   E   E   E   E   E
|--x---x---x---x---x---x--|--x---x---x---x---x---x--|
|--x---x---x---x---x---x--|--x---x---x---x---x---x--|
|--x---x---x---x---x---x--|--x---x---x---x---x---x--|
|--x---x---x---x---x---x--|--x---x---x---x---x---x--|
|--x---x---x---x---x---x--|--x---x---x---x---x---x--|
|--x---x---x---x---x---x--|--x---x---x---x---x---x--|


    Q=169                     H=H
    N.C.
     E   E   E   E   E   E     E   E   E   E   E   E
||--------------------------|-------------------------|
||o-------------------------|-------------------------|
||--------------------------|--7h==9---x--------------|
||---5h==7---x--------------|-------------------------|
||o--------------5h==7---x--|--------------5h==7---x--|
||--------------------------|-------------------------|
|
|    PM------------------------------------------------
|    E   E   E   E   E   E     E   E   E   E   E   E
||--------------------------|-------------------------|
||o-------------------------|-------------------------|
||--<5>-----<5>-----<5>-----|-<5>-----<5>-----<5>-----|
||--<5>-<5>-<5>-<5>-<5>-<5>-|-<5>-<5>-<5>-<5>-<5>-<5>-|
||o-----<5>-----<5>-----<5>-|-----<5>-----<5>-----<5>-|
||--------------------------|-------------------------|
|
|    E   E   E   E   E   E     E   E   E   E   E   E
||---x---x---x---x---x---x--|--x---x---x---x---x---x--|
||o--x---x---x---x---x---x--|--x---x---x---x---x---x--|
||---x---x---x---x---x---x--|--x---x---x---x---x---x--|
||---x---x---x---x---x---x--|--x---x---x---x---x---x--|
||o--x---x---x---x---x---x--|--x---x---x---x---x---x--|
||---x---x---x---x---x---x--|--x---x---x---x---x---x--|


   E   E   E   E   E   E     E   E   E   E   E   E
|-------------------------|---------------------------||
|-------------------------|--------------------------o||
|-------------------------|--7h==9---x----------------||
|--5h==7---x--------------|---------------------------||
|--------------5h==7---x--|--------------5h==7---x---o||
|-------------------------|---------------------------||
|
|-----------------------------------------------|
|  E   E   E   E   E   E     E   E   E   E   E   E
|-------------------------|---------------------------||
|-------------------------|--------------------------o||
|-<5>-----<5>-----<5>-----|-<5>-----<5>-----<5>-------||
|-<5>-<5>-<5>-<5>-<5>-<5>-|-<5>-<5>-<5>-<5>-<5>-<5>---||
|-----<5>-----<5>-----<5>-|-----<5>-----<5>-----<5>--o||
|-------------------------|---------------------------||
|
|  E   E   E   E   E   E     E   E   E   E   E   E
|--x---x---x---x---x---x--|--x---x---x---x---x---x----||
|--x---x---x---x---x---x--|--x---x---x---x---x---x---o||
|--x---x---x---x---x---x--|--x---x---x---x---x---x----||
|--x---x---x---x---x---x--|--x---x---x---x---x---x----||
|--x---x---x---x---x---x--|--x---x---x---x---x---x---o||
|--x---x---x---x---x---x--|--x---x---x---x---x---x----||


   Interlude continued
    Gaining Speed Q=170   H=H
    Bbsus2
    Gtr I
     E   E   E  E  E  E    E   E   E  E  E  E
||----------------------|---------------------|
||o---------------------|---------------------|
||----------------------|--7h==9---x----------|
||---5h==7---x----------|---------------------|
||o-------------5h=7--x-|-------------5h=7--x-|
||----------------------|---------------------|
|
|   Gtr II
|    E  +E   E  E  E  E    E  +E   E  E  E  E
||----------------------|---------------------|
||o---------------------|---------------------|
||----------------------|---------------------|
||--10-(10)-10-10-10-10-|-10-(10)-10-10-10-10-|
||o--8--(8)--8--8--8--8-|--8--(8)--8--8--8--8-|
||---8--(8)--8--8--8--8-|--8--(8)--8--8--8--8-|


   E   E   E  E  E  E    E   E   E  E  E  E
|---------------------|----------------------|
|---------------------|----------------------|
|---------------------|--7h==9---x-----------|
|--5h==7---x----------|----------------------|
|-------------5h=7--x-|-------------5h=7--x--|
|---------------------|----------------------|
|
|  E  +E   E  E  E  E    E  +E   E  E  E  E
|---------------------|----------------------|
|---------------------|----------------------|
|---------------------|----------------------|
|-10-(10)-10-10-10-10-|-10-(10)-10-10-10-10--|
|--8--(8)--8--8--8--8-|--8--(8)--8--8--8--8--|
|--8--(8)--8--8--8--8-|--8--(8)--8--8--8--8--|


  A5
  E  E  E E E E   E  E  E E E E   E  E  E E E E   E  E  E E E E  6x
|---------------|---------------|---------------|----------------||
|---------------|---------------|---------------|---------------o||
|---------------|-7h=9--x-------|---------------|-7h=9--x--------||
|-5h=7--x-------|---------------|-5h=7--x-------|----------------||
|---------5h7-x-|---------5h7-x-|---------5h7-x-|---------5h7-x-o||
|---------------|---------------|---------------|----------------||
|
| E +E  E E E E   E +E  E E E E   E +E  E E E E   E +E  E E E E  6x
|---------------|---------------|---------------|----------------||
|---------------|---------------|---------------|---------------o||
|---------------|---------------|---------------|----------------||
|-7-(7)-7-7-7-7-|-7-(7)-7-7-7-7-|-7-(7)-7-7-7-7-|-7-(7)-7-7-7-7--||
|-7-(7)-7-7-7-7-|-7-(7)-7-7-7-7-|-7-(7)-7-7-7-7-|-7-(7)-7-7-7-7-o||
|-7-(7)-7-7-7-7-|-7-(7)-7-7-7-7-|-7-(7)-7-7-7-7-|-7-(7)-7-7-7-7--||


  Q=172               H=H
  Bbsus2
   E  E  E  E  E  E    E  E  E  E  E  E
|-------------------|-------------------|
|-------------------|-------------------|
|-------------------|-------------------|
|--5h=7--x----------|--5h=7--x----------|
|-----------5h=7--x-|-----------5h=7--x-|
|-------------------|-------------------|
|
|  E  E  E  E  E  E    E  E  E  E  E  E
|-------------------|-------------------|
|-------------------|-------------------|
|-------------------|-------------------|
|-10-10-10-10-10-10-|-10-10-10-10-10-10-|
|--8--8--8--8--8--8-|--8--8--8--8--8--8-|
|--8--8--8--8--8--8-|--8--8--8--8--8--8-|


   E  E  E  E  E  E    E  E  E  E  E  E
|-------------------|-------------------|
|-------------------|-------------------|
|-------------------|-------------------|
|--5h=7--x----------|--5h=7--x----------|
|-----------5h=7--x-|-----------5h=7--x-|
|-------------------|-------------------|
|
|  E  E  E  E  E  E    E  E  E  E  E  E
|-------------------|-------------------|
|-------------------|-------------------|
|-------------------|-------------------|
|-10-10-10-10-10-10-|-10-10-10-10-10-10-|
|--8--8--8--8--8--8-|--8--8--8--8--8--8-|
|--8--8--8--8--8--8-|--8--8--8--8--8--8-|


  Q=174         H=H
  A5
  E E E E E E   E E E E E E   E E E E E E   E E E E E E
|-------------|-------------|-------------|-------------|
|-------------|-------------|-------------|-------------|
|-------------|-------------|-------------|-------------|
|-5h7-x-------|-5h7-x-------|-5h7-x-------|-5h7-x-------|
|-------5h7-x-|-------5h7-x-|-------5h7-x-|-------5h7-x-|
|-------------|-------------|-------------|-------------|
|
| E E E E E E   E E E E E E   E E E E E E   E E E E E E
|-------------|-------------|-------------|-------------|
|-------------|-------------|-------------|-------------|
|-------------|-------------|-------------|-------------|
|-7-7-7-7-7-7-|-7-7-7-7-7-7-|-7-7-7-7-7-7-|-7-7-7-7-7-7-|
|-7-7-7-7-7-7-|-7-7-7-7-7-7-|-7-7-7-7-7-7-|-7-7-7-7-7-7-|
|-7-7-7-7-7-7-|-7-7-7-7-7-7-|-7-7-7-7-7-7-|-7-7-7-7-7-7-|


    Q=175               H=H
    Bbsus2
     E  E  E  E  E  E    E  E  E  E  E  E
||--------------------|-------------------|
||o-------------------|-------------------|
||--------------------|-------------------|
||---5h=7--x----------|--5h=7--x----------|
||o-----------5h=7--x-|-----------5h=7--x-|
||--------------------|-------------------|
|
|    E  E  E  E  E  E    E  E  E  E  E  E
||--------------------|-------------------|
||o-------------------|-------------------|
||--------------------|-------------------|
||--10-10-10-10-10-10-|-10-10-10-10-10-10-|
||o--8--8--8--8--8--8-|--8--8--8--8--8--8-|
||---8--8--8--8--8--8-|--8--8--8--8--8--8-|


   E  E  E  E  E  E    E  E  E  E  E  E
|-------------------|--------------------|
|-------------------|--------------------|
|-------------------|--------------------|
|--5h=7--x----------|--5h=7--x-----------|
|-----------5h=7--x-|-----------5h=7--x--|
|-------------------|--------------------|
|
|  E  E  E  E  E  E    E  E  E  E  E  E
|-------------------|--------------------|
|-------------------|--------------------|
|-------------------|--------------------|
|-10-10-10-10-10-10-|-10-10-10-10-10-10--|
|--8--8--8--8--8--8-|--8--8--8--8--8--8--|
|--8--8--8--8--8--8-|--8--8--8--8--8--8--|


  A5
  E E E E E E   E E E E E E   E E E E E E   E E E E E E
|-------------|-------------|-------------|--------------||
|-------------|-------------|-------------|-------------o||
|-------------|-------------|-------------|-7h9-x--------||
|-5h7-x-------|-5h7-x-------|-5h7-x-------|--------------||
|-------5h7-x-|-------5h7-x-|-------5h7-x-|-------5h7-x-o||
|-------------|-------------|-------------|--------------||
|
| E E E E E E   E E E E E E   E E E E E E   E E E E E E
|-------------|-------------|-------------|--------------||
|-------------|-------------|-------------|-------------o||
|-------------|-------------|-------------|--------------||
|-7-7-7-7-7-7-|-7-7-7-7-7-7-|-7-7-7-7-7-7-|-7-7-7-7-7-7--||
|-7-7-7-7-7-7-|-7-7-7-7-7-7-|-7-7-7-7-7-7-|-7-7-7-7-7-7-o||
|-7-7-7-7-7-7-|-7-7-7-7-7-7-|-7-7-7-7-7-7-|-7-7-7-7-7-7--||


    Q=177
    Bbsus2
     E  E  E  E  E  E    E  E  E  E  E  E
||--------------------|-------------------|
||o-------------------|-------------------|
||--------------------|-------------------|
||---5h=7--x----------|--5h=7--x----------|
||o-----------5h=7--x-|-----------5h=7--x-|
||--------------------|-------------------|
|
|    E  E  E  E  E  E    E  E  E  E  E  E
||--------------------|-------------------|
||o-------------------|-------------------|
||--------------------|-------------------|
||--10-10-10-10-10-10-|-10-10-10-10-10-10-|
||o--8--8--8--8--8--8-|--8--8--8--8--8--8-|
||---8--8--8--8--8--8-|--8--8--8--8--8--8-|


   E  E  E  E  E  E    E  E  E  E  E  E
|-------------------|--------------------|
|-------------------|--------------------|
|-------------------|--------------------|
|--5h=7--x----------|--5h=7--x-----------|
|-----------5h=7--x-|-----------5h=7--x--|
|-------------------|--------------------|
|
|  E  E  E  E  E  E    E  E  E  E  E  E
|-------------------|--------------------|
|-------------------|--------------------|
|-------------------|--------------------|
|-10-10-10-10-10-10-|-10-10-10-10-10-10--|
|--8--8--8--8--8--8-|--8--8--8--8--8--8--|
|--8--8--8--8--8--8-|--8--8--8--8--8--8--|


  A5
  E E E E E E   E E E E E E   E E E E E E   E E E E E E  4x
|-------------|-------------|-------------|--------------||
|-------------|-------------|-------------|-------------o||
|-------------|-------------|-------------|--------------||
|-5h7-x-------|-5h7-x-------|-5h7-x-------|-5h7-x--------||
|-------5h7-x-|-------5h7-x-|-------5h7-x-|-------5h7-x-o||
|-------------|-------------|-------------|--------------||
|
| E E E E E E   E E E E E E   E E E E E E   E E E E E E  4x
|-------------|-------------|-------------|--------------||
|-------------|-------------|-------------|-------------o||
|-------------|-------------|-------------|--------------||
|-7-7-7-7-7-7-|-7-7-7-7-7-7-|-7-7-7-7-7-7-|-7-7-7-7-7-7--||
|-7-7-7-7-7-7-|-7-7-7-7-7-7-|-7-7-7-7-7-7-|-7-7-7-7-7-7-o||
|-7-7-7-7-7-7-|-7-7-7-7-7-7-|-7-7-7-7-7-7-|-7-7-7-7-7-7--||


   Bridge
    Slower Q=170
    A5
    E E E E E E    E  E E E E E    E  E E E E E    E  E E E E E   3x
||--------------|---------------|---------------|-----------------||
||o-------------|---------------|---------------|----------------o||
||--------------|--7h=9-x-------|---------------|--7h=9-x---------||
||--5h7-x-------|---------------|--5h=7-x-------|-----------------||
||o-------5h7-x-|---------5h7-x-|---------5h7-x-|---------5h7-x--o||
||--------------|---------------|---------------|-----------------||
|
|   H.            +H.             +H.             +H.             3x
||--------------|---------------|---------------|-----------------||
||o-------------|---------------|---------------|----------------o||
||--------------|---------------|---------------|-----------------||
||--7-----------|-(7)-----------|-(7)-----------|-(7)-------------||
||o-7-----------|-(7)-----------|-(7)-----------|-(7)------------o||
||--7-----------|-(7)-----------|-(7)-----------|-(7)-------------||


   "Let's just face the fact.."
    Slower Q=155
    Bbsus2
   2/2
     E  E  E  E  E  E  E  E    E  E  E  E  E  E Q
||--------------------------|----------------------|
||o-------------------------|----------------------|
||--------------------------|----------------------|
||---8--8--8--8--8--8--8--8-|--8--8--8--8--8--8----|
||o--8--8--8--8--8--8--8--8-|--8--8--8--8--8--8----|
||---8--8--8--8--8--8--8--8-|--8--8--8--8--8--8----|
|
|    E  E  E  E  E  E  E  E    E  E  E  E  E  E Q
||--------------------------|----------------------|
||o-------------------------|----------------------|
||--------------------------|----------------------|
||--10-10-10-10-10-10-10-10-|-10-10-10-10-10-10----|
||o--8--8--8--8--8--8--8--8-|--8--8--8--8--8--8----|
||---8--8--8--8--8--8--8--8-|--8--8--8--8--8--8----|


  A5
  E E E E E E E E   E E E E E E Q
|-----------------|------------------||
|-----------------|-----------------o||
|-----------------|------------------||
|-7-7-7-7-7-7-7-7-|-7-7-7-7-7-7------||
|-7-7-7-7-7-7-7-7-|-7-7-7-7-7-7-----o||
|-7-7-7-7-7-7-7-7-|-7-7-7-7-7-7------||
|
| E E E E E E E E   E E E E E E Q
|-----------------|------------------||
|-----------------|-----------------o||
|-----------------|------------------||
|-7-7-7-7-7-7-7-7-|-7-7-7-7-7-7------||
|-7-7-7-7-7-7-7-7-|-7-7-7-7-7-7-----o||
|-7-7-7-7-7-7-7-7-|-7-7-7-7-7-7------||


  No more tempo changes! Q=165
  N.C.
 4/4
  E E E E E E E E   E E E E E E E E   E E E E E E E E   E E E E E E E E
|-----------------|-----------------|-----------------|-----------------||
|---0---0---0---0-|---0---0---0---0-|---0---0---0---0-|---0---0-0-------||
|-5---5---5---5---|-5---5---5---5---|-5---5---5---5---|-5---5-----5-5-5-||
|-----------------|-----------------|-----------------|-----------------||
|-----------------|-----------------|-----------------|-----------------||
|-----------------|-----------------|-----------------|-----------------||
|
| W                 W                 W                 H       E E E E
|-----------------|-----------------|-----------------|---------x-x-x-x-||
|-----------------|-----------------|-----------------|---------x-x-x-x-||
|-----------------|-----------------|-----------------|---------x-x-x-x-||
|-----------------|-----------------|-----------------|---------x-x-x-x-||
|-----------------|-----------------|-----------------|---------x-x-x-x-||
|-----------------|-----------------|-----------------|---------x-x-x-x-||


   "White tie, black jacket.."
    N.C.
    Gtrs I, II
    E E E E E E E E   E E E E E E E E   E E E E E E E E   E E E E E E E E   6x
||------------------|-----------------|-----------------|-------------------||
||o---0---0---0---0-|---0---0-0-------|---0---0---0---0-|---0---0-0--------o||
||------5---5---5---|-5---5-----5-5-5-|-----5---5---5---|-5---5-----5-5-5---||
||------------------|-----------------|-----------------|-------------------||
||o-----------------|-----------------|-----------------|------------------o||
||------------------|-----------------|-----------------|-------------------||


   "I ain't seen you in a while."
    N.C.
    Gtr I
    E E E E E E E E    E  E E E E E E E   E E E E E E E E    E  E E E E E E E
||------------------|-------------------|-----------------|--------------------|
||o---0---0---0---0-|-----0---0-0-------|---0---0---0---0-|-----0---0-0--------|
||------5---5---5---|--5----5-----5-5-5-|-----5---5---5---|--5----5-----5-5-5--|
||------------------|-------------------|-----------------|--------------------|
||o-----------------|-------------------|-----------------|--------------------|
||------------------|-------------------|-----------------|--------------------|
|
|   Gtr II
|   E E E E E E E E    E  E E E E E E E   E E E E E E E E    E  E E E E E E E
||------------------|-------------------|-----------------|--------------------|
||o-----------------|-------------------|-----------------|--------------------|
||------------------|-------------------|-----------------|--------------------|
||--7-7-7-7-7-7-7-7-|--7--7-7-7-7-7-7-7-|-0-0-0-0-0-0-0-0-|--0--0-0-0-0-0-0-0--|
||o-x-x-x-x-x-x-x-x-|--x--x-x-x-x-x-x-x-|-x-x-x-x-x-x-x-x-|--x--x-x-x-x-x-x-x--|
||--7-7-7-7-7-7-7-7-|--7--7-7-7-7-7-7-7-|-0-0-0-0-0-0-0-0-|--0--0-0-0-0-0-0-0--|
|
|   Gtr IV
|   W                 +W                  W                 +W
||------------------|-------------------|-----------------|--------------------|
||o-5---------------|-(5)---------------|-----------------|--------------------|
||------------------|-------------------|-7---------------|-(7)----------------|
||------------------|-------------------|-----------------|--------------------|
||o-----------------|-------------------|-----------------|--------------------|
||------------------|-------------------|-----------------|--------------------|


  N.C.
   E  E  E  E  E  E  E  E    E   E  E  E  E  E  E  E
|-------------------------|--------------------------|
|-----0-----0-----0-----0-|------0-----0--0----------|
|--------5-----5-----5----|--5------5--------5--5--5-|
|-------------------------|--------------------------|
|-------------------------|--------------------------|
|-------------------------|--------------------------|
|
|  E  E  E  E  E  E  E  E    E   E  E  E  E  E  E  E
|-------------------------|--------------------------|
|-------------------------|--------------------------|
|-12-12-12-12-12-12-12-12-|-12--12-12-12-12-12-12-12-|
|--x--x--x--x--x--x--x--x-|--x---x--x--x--x--x--x--x-|
|-10-10-10-10-10-10-10-10-|-10--10-10-10-10-10-10-10-|
|-------------------------|--------------------------|
|
|  W                        +W
|-------------------------|--------------------------|
|--8----------------------|-(8)----------------------|
|-------------------------|--------------------------|
|-------------------------|--------------------------|
|-------------------------|--------------------------|
|-------------------------|--------------------------|


  E E E E E E E E    E  E E E E E E E  4x
|-----------------|--------------------||
|---0---0---0---0-|-----0---0-0-------o||
|-----5---5---5---|--5----5-----5-5-5--||
|-----------------|--------------------||
|-----------------|-------------------o||
|-----------------|--------------------||
|
| E E E E E E E E    E  E E E E E E E  4x
|-----------------|--------------------||
|-----------------|-------------------o||
|-9-9-9-9-9-9-9-9-|--9--9-9-9-9-9-9-9--||
|-x-x-x-x-x-x-x-x-|--x--x-x-x-x-x-x-x--||
|-7-7-7-7-7-7-7-7-|--7--7-7-7-7-7-7-7-o||
|-----------------|--------------------||
|
| W                 +W                 4x
|-----------------|--------------------||
|-5---------------|-(5)---------------o||
|-----------------|--------------------||
|-----------------|--------------------||
|-----------------|-------------------o||
|-----------------|--------------------||


   "Your whites shine.."
    N.C.
    E E E E E E E E    E  E E E E E E E   E E E E E E E E    E  E E E E E E E
||------------------|-------------------|-----------------|--------------------|
||o-----------------|-------------------|-----------------|--------------------|
||----5-5-5-5-5-5-5-|--5--5-5-5-5-5-5-5-|---4-4-4-4-4-4-4-|--4--4-4-4-4-4-4-4--|
||----x-x-x-x-x-x-x-|--x--x-x-x-x-x-x-x-|---x-x-x-x-x-x-x-|--x--x-x-x-x-x-x-x--|
||o---3-3-3-3-3-3-3-|--3--3-3-3-3-3-3-3-|---2-2-2-2-2-2-2-|--2--2-2-2-2-2-2-2--|
||------------------|-------------------|-----------------|--------------------|
|
|   E E E E E E E E    E  E E E E E E E   E E E E E E E E    E  E E E E E E E
||------------------|-------------------|-----------------|--------------------|
||o-----------------|-------------------|-----------------|--------------------|
||--9-9-9-9-9-9-9-9-|--9--9-9-9-9-9-9-9-|-7-7-7-7-7-7-7-7-|--7--7-7-7-7-7-7-7--|
||--x-x-x-x-x-x-x-x-|--x--x-x-x-x-x-x-x-|-x-x-x-x-x-x-x-x-|--x--x-x-x-x-x-x-x--|
||o-7-7-7-7-7-7-7-7-|--7--7-7-7-7-7-7-7-|-5-5-5-5-5-5-5-5-|--5--5-5-5-5-5-5-5--|
||------------------|-------------------|-----------------|--------------------|
|
|   W                 +W                  W                 +W
||------------------|-------------------|-----------------|--------------------|
||o-5---------------|-(5)---------------|-----------------|--------------------|
||------------------|-------------------|-7---------------|-(7)----------------|
||------------------|-------------------|-----------------|--------------------|
||o-----------------|-------------------|-----------------|--------------------|
||------------------|-------------------|-----------------|--------------------|


  N.C.
   E  E  E  E  E  E  E  E    E   E  E  E  E  E  E  E
|-------------------------|--------------------------|
|-------------------------|--------------------------|
|-----9--9--9--9--9--9--9-|--9---9--9--9--9--9--9--9-|
|-----x--x--x--x--x--x--x-|--x---x--x--x--x--x--x--x-|
|-----7--7--7--7--7--7--7-|--7---7--7--7--7--7--7--7-|
|-------------------------|--------------------------|
|
|  E  E  E  E  E  E  E  E    E   E  E  E  E  E  E  E
|-------------------------|--------------------------|
|-------------------------|--------------------------|
|-12-12-12-12-12-12-12-12-|-12--12-12-12-12-12-12-12-|
|--x--x--x--x--x--x--x--x-|--x---x--x--x--x--x--x--x-|
|-10-10-10-10-10-10-10-10-|-10--10-10-10-10-10-10-10-|
|-------------------------|--------------------------|
|
|  W                        +W
|-------------------------|--------------------------|
|--8----------------------|-(8)----------------------|
|-------------------------|--------------------------|
|-------------------------|--------------------------|
|-------------------------|--------------------------|
|-------------------------|--------------------------|


  E E E E E E E E    E  E E E E E E E  4x
|-----------------|--------------------||
|-----------------|-------------------o||
|---9-9-9-9-9-9-9-|--9--9-9-9-9-9-9-9--||
|---x-x-x-x-x-x-x-|--x--x-x-x-x-x-x-x--||
|---7-7-7-7-7-7-7-|--7--7-7-7-7-7-7-7-o||
|-----------------|--------------------||
|
| E E E E E E E E    E  E E E E E E E  4x
|-----------------|--------------------||
|-----------------|-------------------o||
|-9-9-9-9-9-9-9-9-|--9--9-9-9-9-9-9-9--||
|-x-x-x-x-x-x-x-x-|--x--x-x-x-x-x-x-x--||
|-7-7-7-7-7-7-7-7-|--7--7-7-7-7-7-7-7-o||
|-----------------|--------------------||
|
| W                 +W                 4x
|-----------------|--------------------||
|-5---------------|-(5)---------------o||
|-----------------|--------------------||
|-----------------|--------------------||
|-----------------|-------------------o||
|-----------------|--------------------||


 Outro
  N.C.
 8/8
  E E E E E E E E    E  E E E E E E E   E E E E E E E E    E  E E E E E E E
|-----------------|-------------------|-----------------|--------------------|
|-----------------|-------------------|-----------------|--------------------|
|---5-5-5-5-5-5-5-|--5--5-5-5-5-5-5-5-|---4-4-4-4-4-4-4-|--4--4-4-4-4-4-4-4--|
|---x-x-x-x-x-x-x-|--x--x-x-x-x-x-x-x-|---x-x-x-x-x-x-x-|--x--x-x-x-x-x-x-x--|
|---3-3-3-3-3-3-3-|--3--3-3-3-3-3-3-3-|---2-2-2-2-2-2-2-|--2--2-2-2-2-2-2-2--|
|-----------------|-------------------|-----------------|--------------------|
|
| E E E E E E E E    E  E E E E E E E   E E E E E E E E    E  E E E E E E E
|-----------------|-------------------|-----------------|--------------------|
|-----------------|-------------------|-----------------|--------------------|
|-9-9-9-9-9-9-9-9-|--9--9-9-9-9-9-9-9-|-7-7-7-7-7-7-7-7-|--7--7-7-7-7-7-7-7--|
|-x-x-x-x-x-x-x-x-|--x--x-x-x-x-x-x-x-|-x-x-x-x-x-x-x-x-|--x--x-x-x-x-x-x-x--|
|-7-7-7-7-7-7-7-7-|--7--7-7-7-7-7-7-7-|-5-5-5-5-5-5-5-5-|--5--5-5-5-5-5-5-5--|
|-----------------|-------------------|-----------------|--------------------|
|
| W                 +W                  W                 +W
|-8---------------|-(8)---------------|-7---------------|-(7)----------------|
|-----------------|-------------------|-----------------|--------------------|
|-----------------|-------------------|-----------------|--------------------|
|-----------------|-------------------|-----------------|--------------------|
|-----------------|-------------------|-----------------|--------------------|
|-----------------|-------------------|-----------------|--------------------|


  N.C.
   E  E  E  E  E  E  E  E    E   E  E  E  E  E  E  E
|-------------------------|--------------------------|
|-------------------------|--------------------------|
|-----9--9--9--9--9--9--9-|--9---9--9--9--9--9--9--9-|
|-----x--x--x--x--x--x--x-|--x---x--x--x--x--x--x--x-|
|-----7--7--7--7--7--7--7-|--7---7--7--7--7--7--7--7-|
|-------------------------|--------------------------|
|
|  E  E  E  E  E  E  E  E    E   E  E  E  E  E  E  E
|-------------------------|--------------------------|
|-------------------------|--------------------------|
|-12-12-12-12-12-12-12-12-|-12--12-12-12-12-12-12-12-|
|--x--x--x--x--x--x--x--x-|--x---x--x--x--x--x--x--x-|
|-10-10-10-10-10-10-10-10-|-10--10-10-10-10-10-10-10-|
|-------------------------|--------------------------|
|
|  W                        +W
|-------------------------|--------------------------|
|-------------------------|--------------------------|
|--9----------------------|-(9)----------------------|
|-------------------------|--------------------------|
|-------------------------|--------------------------|
|-------------------------|--------------------------|


   E   E  E  E  E  E  E  E    E   E  E  E  E  E  E  E
|--------------------------|--------------------------|
|--------------------------|--------------------------|
|------9--9--9--9--9--9--9-|--9---9--9--9--9--9--9--9-|
|------x--x--x--x--x--x--x-|--x---x--x--x--x--x--x--x-|
|------7--7--7--7--7--7--7-|--7---7--7--7--7--7--7--7-|
|--------------------------|--------------------------|
|
|  E   E  E  E  E  E  E  E    E   E  E  E  E  E  E  E
|--------------------------|--------------------------|
|--------------------------|--------------------------|
|-14--14-14-14-14-14-14-14-|-14--14-14-14-14-14-14-14-|
|--x---x--x--x--x--x--x--x-|--x---x--x--x--x--x--x--x-|
|-12--12-12-12-12-12-12-12-|-12--12-12-12-12-12-12-12-|
|--------------------------|--------------------------|
|
| +W                         +W
|--------------------------|--------------------------|
|--------------------------|--------------------------|
|-(9)----------------------|-(9)----------------------|
|--------------------------|--------------------------|
|--------------------------|--------------------------|
|--------------------------|--------------------------|


  N.C.
  E E E E E E E E    E  E E E E E E E   E E E E E E E E    E  E E E E E E E
|-----------------|-------------------|-----------------|-------------------|
|-----------------|-------------------|-----------------|-------------------|
|---5-5-5-5-5-5-5-|--5--5-5-5-5-5-5-5-|---4-4-4-4-4-4-4-|--4--4-4-4-4-4-4-4-|
|---x-x-x-x-x-x-x-|--x--x-x-x-x-x-x-x-|---x-x-x-x-x-x-x-|--x--x-x-x-x-x-x-x-|
|---3-3-3-3-3-3-3-|--3--3-3-3-3-3-3-3-|---2-2-2-2-2-2-2-|--2--2-2-2-2-2-2-2-|
|-----------------|-------------------|-----------------|-------------------|
|
| E E E E E E E E    E  E E E E E E E   E E E E E E E E    E  E E E E E E E
|-----------------|-------------------|-----------------|-------------------|
|-----------------|-------------------|-----------------|-------------------|
|-9-9-9-9-9-9-9-9-|--9--9-9-9-9-9-9-9-|-7-7-7-7-7-7-7-7-|--7--7-7-7-7-7-7-7-|
|-x-x-x-x-x-x-x-x-|--x--x-x-x-x-x-x-x-|-x-x-x-x-x-x-x-x-|--x--x-x-x-x-x-x-x-|
|-7-7-7-7-7-7-7-7-|--7--7-7-7-7-7-7-7-|-5-5-5-5-5-5-5-5-|--5--5-5-5-5-5-5-5-|
|-----------------|-------------------|-----------------|-------------------|
|
| W                 +W                  W                 +W
|-8---------------|-(8)---------------|-7---------------|-(7)---------------|
|-----------------|-------------------|-----------------|-------------------|
|-----------------|-------------------|-----------------|-------------------|
|-----------------|-------------------|-----------------|-------------------|
|-----------------|-------------------|-----------------|-------------------|
|-----------------|-------------------|-----------------|-------------------|


  N.C.
   E  E  E  E  E  E  E  E    E   E  E  E  E  E  E  E
|-------------------------|--------------------------|
|-------------------------|--------------------------|
|-----9--9--9--9--9--9--9-|--9---9--9--9--9--9--9--9-|
|-----x--x--x--x--x--x--x-|--x---x--x--x--x--x--x--x-|
|-----7--7--7--7--7--7--7-|--7---7--7--7--7--7--7--7-|
|-------------------------|--------------------------|
|
|  E  E  E  E  E  E  E  E    E   E  E  E  E  E  E  E
|-------------------------|--------------------------|
|-------------------------|--------------------------|
|-12-12-12-12-12-12-12-12-|-12--12-12-12-12-12-12-12-|
|--x--x--x--x--x--x--x--x-|--x---x--x--x--x--x--x--x-|
|-10-10-10-10-10-10-10-10-|-10--10-10-10-10-10-10-10-|
|-------------------------|--------------------------|
|
|  W                        +W
|-------------------------|--------------------------|
|-------------------------|--------------------------|
|--9----------------------|-(9)----------------------|
|-------------------------|--------------------------|
|-------------------------|--------------------------|
|-------------------------|--------------------------|


   E   E  E  E  E  E  E  E     E   E  E  E  E  E E E
|--------------------------|-------------------------||
|--------------------------|-------------------------||
|------9--9--9--9--9--9--9-|---9---9--9--9--9--9-9-9-||
|------x--x--x--x--x--x--x-|---x---x--x--x--x--x-x-x-||
|------7--7--7--7--7--7--7-|---7---7--7--7--7--7-7-7-||
|--------------------------|-------------------------||
|
|                                                PM|
|  E   E  E  E  E  E  E  E     E   E  E  E  E  E E E
|-17--17-17-17-17-17-17-17-|--17--17-17-17-17-17-----||
|--x---x--x--x--x--x--x--x-|---x---x--x--x--x--x-----||
|-14--14-14-14-14-14-14-14-|--14--14-14-14-14-14-----||
|--x---x--x--x--x--x--x--x-|---x---x--x--x--x--x-----||
|-12--12-12-12-12-12-12-12-|--12--12-12-12-12-12-0-0-||
|--------------------------|---------------------0-0-||
|
|  W                          +W
|--------------------------|-------------------------||
|-10-----------------------|-(10)--------------------||
|-(9)----------------------|--(9)--------------------||
|--------------------------|-------------------------||
|--------------------------|-------------------------||
|--------------------------|-------------------------||


 Final Chord
  E5
 2/2
  Gtrs I, II
  W          +W           +W           +W
|----------|------------|------------|--------|
|----------|------------|------------|--------|
|----------|------------|------------|--------|
|-2--------|-(2)--------|-(2)--------|-(2)----|
|-2--------|-(2)--------|-(2)--------|-(2)----|
|-2--------|-(2)--------|-(2)--------|-(2)----|


    E5
    +W           +W           +W           +W      4x
||-------------|------------|------------|---------||
||o------------|------------|------------|--------o||
||-------------|------------|------------|---------||
||--(2)--------|-(2)--------|-(2)--------|-(2)-----||
||o-(2)--------|-(2)--------|-(2)--------|-(2)----o||
||--(2)--------|-(2)--------|-(2)--------|-(2)-----||


Duration Legend
---------------
W - whole; H - half; Q - quarter; E - 8th; S - 16th; T - 32nd; X - 64th; a - acciaccatura
+ - note tied to previous; . - note dotted; .. - note double dotted
Uncapitalized letters represent notes that are staccato (1/2 duration)
Irregular groupings are notated above the duration line
Duration letters will always appear directly above the note/fret number it represents the
duration for.  Duration letters with no fret number below them represent rests.  Multi-
bar rests are notated in the form Wxn, where n is the number of bars to rest for.  Low
melody durations appear below the staff

Tablature Legend
----------------
 h   - hammer-on
 p   - pull-off
 b   - bend
 pb  - pre-bend
 r   - bend release (if no number after the r, then release immediately)
 /\  - slide into or out of (from/to "nowhere")
 s   - legato slide
 S   - shift slide
  - natural harmonic
[n]  - artificial harmonic
n(n) - tapped harmonic
 ~   - vibrato
 tr  - trill
 T   - tap
 TP  - trem. picking
 PM  - palm muting
\n/  - tremolo bar dip; n = amount to dip
 \n  - tremolo bar down
 n/  - tremolo bar up
/n\  - tremolo bar inverted dip
 =   - hold bend; also acts as connecting device for hammers/pulls
 <>  - volume swell (louder/softer)
 x   - on rhythm slash represents muted slash
 o   - on rhythm slash represents single note slash

Misc Legend
-----------
 |  - bar
||  - double bar
||o - repeat start
o|| - repeat end
*|  - double bar (ending)
 :  - bar (freetime)
 $  - Segno
 &  - Coda
Tempo markers -  = BPM(8/16=s8/s16), where s8 = swing 8ths, s16 = swing 16ths


Добавлено: 04.09.2013
Другие материалы по этой песне:

Страница создана 06.06.2012
http://primanota.ru/norma-jean/organized-beyond-recognition-chords.htm
Привет, Гость.
Предлагаем пройти революционный курс по гитаре.
Подарок от PrimaNota.Ru, забирай!